PrimaNota.ru - самый крупный в мире бесплатный архив песенных текстов, аккордов, табулатур и нот


Useless I.D - Weird Rock - текст песни, таба, бас-таба, видео

Регистрация Запомнить меня
Войти через:  Facebook Google Twitter Vk Yandex Mail.ru

Useless I.D - Weird Rock - текст песни, таба, бас-таба, видео

Печатать
Просмотров: 102
Band: Useless ID
Song: Weird Rock
Tune: EADGBE


Intro/Verse (Gtr.1)
|----------------|
|----------------|
|-5--------------|
|-5-5-3-2-7-5----|
|-3-5-3-2-7-5----|
|---3-1-0-5-3----|

Intro (Gtr.2)
|--------------------------------|
|--------------------------------|
|---5---4-5----------------------|
|-5---5-----7-6------------------|
|---------------5-7-5-3-7-5-3----|
|--------------------------------|


Chorus (Gtr.2)
|---------------------------|
|---------------------------|
|-5----------5--------------|
|-5-2-7-5-3--5-2-7-5-3-5----|
|-3-2-7-5-3--3-2-7-5-3-5----|
|---0-5-3-1----0-5-3-1-3----|


Outro (Gtr.2)
|-----------------------7-8-------------------|
|-8-----5-5-5-6---8-6-5-------8-6-8-10-8-6----|
|---4-5---------7-----------------------------|
|---------------------------------------------|
|---------------------------------------------|
|---------------------------------------------|


|-----------------------7-8-7-5------------|
|-8-----5-5-5-6---8-6-5---------8-6-9-8----|
|---4-5---------7--------------------------|
|------------------------------------------|
|------------------------------------------|
|------------------------------------------|



Добавлено: 17.10.2013
Другие материалы по этой песне:
  • Аккорды и текст

Страница создана 17.05.2012
http://primanota.ru/useless-id/weird-rock-chords.htm
Привет, Гость.
Предлагаем пройти революционный курс по гитаре.
Подарок от PrimaNota.Ru, забирай!