PrimaNota.ru - самый крупный в мире бесплатный архив песенных текстов, аккордов, табулатур и нот


Useless I.D - The Worst Holiday Ive Ever Had - бас-таба, видео

Регистрация Запомнить меня
Войти через:  Facebook Google Twitter Vk Yandex Mail.ru

Useless I.D - The Worst Holiday Ive Ever Had - бас-таба, видео

Печатать
Просмотров: 105
+++++++++++++++++++++++++++++++++++++++++++++++
| Useless ID- The Worst Holiday I've Ever Had |
+++++++++++++++++++++++++++++++++++++++++++++++


"Do you remember when no one was wondering
Why I was sad on this holiday?"


Tuning: EADG


Intro
1.
G|-----------------------------------------------------------------|
D|-----------------------------------------------------------------|
A|---------------------------------3-33-335-55-555-2-22-22---------|--x2
E|-3-33-333-33-333-0-00-000-00-000------------------------0-00-000-|

Verse
"The happiest day of the year..."
2.
G|-----------------------------------------------------------------|
D|-----------------------------------------------------------------|
A|---------------------------------3-33-335-55-555-2-22-22---------|
E|-3-33-333-33-333-0-00-000-00-000------------------------0-00-000-|

"She's waiting there..."
3.
G|-------------------------------------------------------------------|
D|-------------------------------------------------------------------|
A|---------------------------------3-33-335-55-555-2-22-22-77-5555x--|
E|-3-33-333-33-333-0-00-000-00-000-----------------------------------|

Pre-Chorus
"Its down once again..."
4.
G|--------------------------------|
D|--------------------------------|
A|-3-333-33-333x--55-555x---------|
E|--------------------------------|

Chorus
"Will anyone care to end..."
5.
G|-----------------------------------------------------------------|
D|-----------------------------------------------------------------|
A|-------------------------2-22-22-3-33-33-3-33-33x----6x--6x--6x--|
E|-3-33-33-2-22-22-0-00-00-----------------------------------------|

Outro
6.
G|-----------------------------------------------------------------|
D|-----------------------------------------------------------------|
A|---------------------------------3-33-335-55-555-2-22-22---------|--x2
E|-3-33-333-33-333-0-00-000-00-000------------------------0-00-000-|

Verse
"You thought about another chance..."
7.
G|------------------------------------------------------|
D|------------------------------------------------------|
A|---------------------------3~--5-5-5-2~--7-7777-5x----|
E|-3~--3-3-3x---0~--0-0-0x------------------------------|

"Cant stand to see another smile..."
8.
G|---------------------------------------------------------|
D|---------------------------------------------------------|
A|---------------------------3x----5x----6x----77-5555x----|
E|-3~--3-3-3x---0~--0-0-0x---------------------------------|

Pre-Chorus
"Its down once again..."
9.
G|--------------------------------|
D|--------------------------------|
A|-3-333-33-333x--55-555x---------|
E|--------------------------------|

Chorus
"Will anyone care to end..."
10.
G|-----------------------------------------------------------------|
D|-----------------------------------------------------------------|
A|-------------------------2-22-22-3-33-33-3-33-33x----6x--6x------|
E|-3-33-33-2-22-22-0-00-00-----------------------------------------|

"Its so clear..."
11.
G|-------------------------------------------------------------------|
D|-------------------------------------------------------------------|
A|---------5-55-55---------2-22-22-3-33-33-3-33-33-6~----------------|
E|-3-33-33---------0-00-00-------------------------------------------|

Bridge
"Its the worst holiday Ive had..."
12.
G|-------------------------------------------------------------------------|
D|-------------------------------------------------------------------------|
A|-------------------33333333----------------------------33333333----------|
E|-00000000-33333333----------00000000-00000000-33333333----------00000000-|

"Its the worst holiday Ive had..."
13.
G|----------------------------------------|
D|----------------------------------------|
A|-------------------33333333----------7\-|
E|-00000000-33333333----------00000000----|

"When you want to break out..."
14.
G|-------------------------------------------------------------------------|
D|-------------------------------------------------------------------------|
A|-------------------33333333------777-------------------33333333------777-|
E|-00000000-33333333----------00000----00000000-33333333----------00000----|

Outro
"Do you remember when..."
15.
G|-----------------------------------------------------------------------------|
D|-----------------------------------------------------------------------------|
A|-33333333-55555555-22222222----------000000x----222222x----3~----------------|
E|----------------------------00000000-----------------------------------------|


Please rate thank you!


Lyrics:

The happiest day of the year has come around again.
Mabye tonight I'm bound to find my long awaited friend.
She's waiting there. The falling star where wishes don't come true.
It's too bad that I got no plan and wonder what I can possibly do.

It's down once again.
Will anyone care to end the worst holiday I've ever had in years.

You thought about another chance that didn't make it through,
because of what the bad scene has made out of you.
Can't stand to see another smile the next time she's around.
I'll lend her all my feelings for a day. How does it sound?
So cruel.

It's so clear, it's the worst holiday I've ever had.

It's the worst holiday I've ever had.

When you want to break out...
When you want to break out...
Break Out!

Do you remember when? No one was wondering.
Why I was sad on this holiday?



+++++++++++++++++++++++++++++++++
| RaiLeff                       |
| Underground__Dora@Hotmail.Com |
+++++++++++++++++++++++++++++++++
Добавлено: 08.08.2013
Другие материалы по этой песне:
  • Аккорды и текст

Страница создана 08.08.2013
http://primanota.ru/useless-id/the-worst-holiday-ive-ever-had-chords.htm
Привет, Гость.
Предлагаем пройти революционный курс по гитаре.
Подарок от PrimaNota.Ru, забирай!