PrimaNota.ru - самый крупный в мире бесплатный архив песенных текстов, аккордов, табулатур и нот


Useless I.D - My Therapy - текст песни, таба, видео

Регистрация Запомнить меня
Войти через:  Facebook Google Twitter Vk Yandex Mail.ru

Useless I.D - My Therapy - текст песни, таба, видео

Печатать
Просмотров: 90
++++++++++++++++++++++++++
| Useless ID- My Therapy |
++++++++++++++++++++++++++

Tuning: EADGBe

Key:

| h: Hammer On     |
| p: Pull Off      |
| ~: Let Note Ring |
| x: Mute          |
| /: Slide Up      |
| \: Slide Down    |


Intro

Guitar 1
1.
e|------------------------------------------|
B|------------------------------------------|
G|---2-1-2----2-1-2----2-1-2----2-1x--------|
D|----------00-0-0-0----------00-0----------|
A|-00-0-0-0----------00-0-0-0---------------|
E|------------------------------------------|

2.
e|-------------------------------------------------------------------------|
B|-------------------------------------------------------------------------|
G|---2-1-2----2-1-2----2-1-2----2-1-2----2-1-2----2-1-2----2-1-2----2-1-2--|
D|----------00-0-0-0----------00-0-0-0-------------------00-0-0-0-00-0-0-0-|
A|-00-0-0-0----------00-0-0-0-------------------44-4-4-4-------------------|
E|-------------------------------------22-2-2-2----------------------------|

3.
e|-------------------------------------------------------------------------|
B|-------------------------------------------------------------------------|
G|---2-1-2----2-1-2----2-1-2----2-1-2----2-1-2----2-1-2----2-1-2-----------|
D|----------00-0-0-0----------00-0-0-0-------------------00-0-0-0-0~-------|
A|-00-0-0-0----------00-0-0-0-------------------44-4-4-4-------------------|
E|-------------------------------------22-2-2-2----------------------------|

Guitar 2
4.
e|-------------------------------------------------------------------------|
B|----------------------------------------------------------------66666666-|
G|-22222222-77777777-22222222-77777777----------66666666-77777777-77777777-|
D|-22222222-77777777-22222222-77777777-44444444-66666666-77777777-77777777-|
A|-00000000-55555555-00000000-55555555-44444444-44444444-55555555-55555555-|
E|-------------------------------------22222222----------------------------|

5.
e|-------------------------------------------------------------------------|
B|----------------------------------------------------------------6~-------|
G|-22222222-77777777-22222222-77777777----------66666666-77777777-7~-------|
D|-22222222-77777777-22222222-77777777-44444444-66666666-77777777-7~-------|
A|-00000000-55555555-00000000-55555555-44444444-44444444-55555555-5~-------|
E|-------------------------------------22222222----------------------------|

Verse

Both Guitars
"Lets take a trip down memory lane..."
6.
e|--------------------------------------------------------------------------|
B|-----------------------------------------------------------------66666666-|
G|-222x----777x-----222x-----777x----------------66666666-77777777-77777777-|
D|-222x----777x-----222x-----777x--4-2-4-4444444-66666666-77777777-77777777-|
A|-000x----555x-----000x-----555x--4-2-4-4444444-44444444-55555555-55555555-|--x2
E|---------------------------------2-0-2-2222222----------------------------|

Chorus

Both Guitars
"Did you know, its been too long..."
7.
e|------------------------------------------------------------------------|
B|------------------------------------------------------------------------|
G|-22222222-22222222-22222222-2222-----------------------77777777---------|
D|-22222222-22222222-22222222-22224222-44444444-44444444-77777777-2222222-|
A|-00000000-00000000-00000000-00004222-44444444-44444444-55555555-2222222-|--x2
E|--------------------------------2000-22222222-22222222----------0000000-|

Outro

Guitar 1

8.
e|-------------------------------------|
B|-------------------------------------|
G|---2-1-2----2-1-2----2-1-2----2-1-2--|
D|----------00-0-0-0----------00-0-0-0-|
A|-00-0-0-0----------00-0-0-0----------|
E|-------------------------------------|

Guitar 2

9.
e|----------------------------------|
B|----------------------------------|
G|-22x-----55x-----22x-----55x------|
D|-22x-----55x-----22x-----55x------|
A|-00x-----55x-----00x-----55x------|
E|----------------------------------|

Verse

Both Guitars
"I called from England just to hear you say..."
10.
e|---------------------------------------------------------------------------|
B|------------------------------------------------------------------66666666-|
G|-2~---------------------------------------------66666666-77777777-77777777-|
D|-2~-------------------------777x--4-2-4-4444444-66666666-77777777-77777777-|
A|-0~-------------------------555x--4-2-4-4444444-44444444-55555555-55555555-|
E|----------------------------------2-0-2-2222222----------------------------|

"The one tape that I left you with..."
11.
e|---------------------------------------------------------------------|
B|-----------------------------------------------------------------xxx-|
G|-222x----777x-----222x-----777x----------------66666666-77777777-xxx-|
D|-222x----777x-----222x-----777x--4-2-4-4444444-66666666-77777777-xxx-|
A|-000x----555x-----000x-----555x--4-2-4-4444444-44444444-55555555-xxx-|
E|---------------------------------2-0-2-2222222-----------------------|

Chorus

Both Guitars
"Im sorry again, its been too long..."
12
e|------------------------------------------------------------------------|
B|------------------------------------------------------------------------|
G|-22222222-22222222-22222222-2222-----------------------77777777---------|
D|-22222222-22222222-22222222-22224222-44444444-44444444-77777777-2222222-|
A|-00000000-00000000-00000000-00004222-44444444-44444444-55555555-2222222-|--x2
E|--------------------------------2000-22222222-22222222----------0000000-|

Outro

Guitar 1

13.
e|----------------------------------|
B|----------------------------------|
G|---7777---6666666---------4444444-|
D|-----------------446677-----------|
A|-55----777-------------444--------|--x4
E|----------------------------------|

14.
e|---------------------------|
B|---------------------------|
G|---7777---6666666------66x-|
D|-----------------44667766x-|
A|-55----777-------------44x-|
E|---------------------------|

Guitar 2

15.
e|-------|
B|-------|
G|-7x----|
D|-7x----|
A|-5x----|
E|-------|

16.
e|----------------------------------------------------------|
B|----------------------------------------------------------|
G|-77x----7---------------66x----77x----7---------------66x-|
D|-77x----722x----44x----466x----77x----722x----44x----466x-|
A|-55x----522x----44x----444x----55x----522x----44x----444x-|--x2
E|---------00x----22x----2---------------00x----22x----2----|

Bridge

Both Guitars
"Take back what you promised..."
17.
e|------------------------------------------------------------------5-4-2-0-|
B|--------------------------------------------------------------------------|
G|-77777777-------------------66666666-77777777-----------------------------|
D|-77777777-22222222-44444444-66666666-77777777-2222222-444xx4x4x44---------|
A|-55555555-22222222-44444444-44444444-55555555-2222222-444xx4x4x44---------|
E|----------00000000-22222222-------------------0000000-222xx2x2x22---------|

"Dont you worry at all..."
18.
e|-----------------------------------------------------------------------|
B|-----------------------------------------------------------------------|
G|-77777777----------------------------7~--------------------------------|
D|-77777777-22222222-22222222-44444444-7~---------------2~---------------|
A|-55555555-22222222-22222222-44444444-5~---------------2~---------------|
E|----------00000000-11111111-22222222------------------0~---------------|

Outro

Guitar 1

19.
e|-----------------------------------------------------------------------------|
B|----------------------------------------------33322233----------33322233-----|
G|----------77777777----------77777777-22211122----------22211122--------------|
D|-44444444-77777777-44444444-77777777-------------------------------------44x-|
A|-44444444-55555555-44444444-55555555-------------------------------------22x-|
E|-22222222----------22222222----------------------------------------------22x-|

Guitar 2

20.
e|---------------------------------------------------------------------------------|
B|---------------------------------------------------------------------------------|
G|----------77777777----------77777777-----------77x----777----------77x----777----|
D|-44444444-77777777-44444444-77777777-44x----44477x----77744x----44477x----77744x-|
A|-44444444-55555555-44444444-55555555-44x----44455x----55544x----44455x----55544x-|
E|-22222222----------22222222----------22x----222----------22x----222----------22x-|

Lyrics:

Let's take a trip down memory lane and pass by all the nights,
were I'll find myself in your arms agian.
There's no inspiration here, lets go, I think we better get.
But we're stuck deep in the depths of yesterday.

Did you know it's been too long?
This movie never ends, I need you more than anything now.
So much has changed but we will always be a part of something no one can see.

I called you from England just to hear you say:
"leave a message after the beep"
But it was more than that in your sad voice sound.
The one tape that I left you with, gave a tear to your eye and left me sick with words
I've been keeping in so long, I'm sorry agian.

Take back what you promised, it's been raining since you left me.
Don't you worry at all, I'll be back before you know it knocking on your door.

+++++++++++++++++++++++++++++++++
| RaiLeff                       |
| Underground__Dora@Hotmail.Com |
+++++++++++++++++++++++++++++++++
Добавлено: 20.06.2013
Другие материалы по этой песне:
  • Аккорды и текст

Страница создана 27.02.2012
http://primanota.ru/useless-id/my-therapy-chords.htm
Привет, Гость.
Предлагаем пройти революционный курс по гитаре.
Подарок от PrimaNota.Ru, забирай!