PrimaNota.ru - самый крупный в мире бесплатный архив песенных текстов, аккордов, табулатур и нот


Us - Powerpuff Girls - таба, видео

Регистрация Запомнить меня
Войти через:  Facebook Google Twitter Vk Yandex Mail.ru

Us - Powerpuff Girls - таба, видео

Печатать
Просмотров: 179
"Powerpuff Girls"
 As recorded by Us.            Tabed by Froggy51088@aol.com 
          
                Original Song Written by Amanda McKinnon
                                         Steven Clark
 Cover Written by...                     John Clark
 Us    (Guitar 1, Matt Degonish)         Thomas Chase
       (Guitar 2/Vocals, Zach Van Horn)  Steven Rucker and
       (Keyboard, Jocelyn Compliment)    James L. Venable
       (Percussion, Jadie Paradise)

Guitar-1
e---------------------------------------------------
B-------------PM~~~~~~~~~~~~~~~~~~~~~~~~~~~~~~~~~~~~
G--5-(5)-5----555555555555-5-33333333333333333------
D--5-(5)-5----555555555555-5-33333333333333333------  3X
A--3-(3)-3----333333333333-3-11111111111111111------  Per
E---------------------------------------------------  Verse
1st Verse  
  Blos - som, ...
   Bub - bles,...
  But(ter)cup,she is the     toughest fighter. Riff 1, Chorus
2nd Verse
   Oh,   no, ...
   Watch out,...
   Get   him,it's evil Mo -  jo Jo-jo.         Riff 1, Chorus



Guitar 1 (Riff 1)
e-------------------------------------
B-------------------------------------
G-----------------5~HOLD~~~~~~~~~~~~~~
D--1---1---1------5~HOLD~~~~~~~~~~~~~~
A-----------------3~HOLD~~~~~~~~~~~~~~
E-------------------------------------
   Pow-er--puff,  save the day!
e-------------------------------------
B-------------------------------------
G--------------------------0~Let Ring-
D--1---1---1------1----3--------------
A-------------------------------------
E-------------------------------------
Guitar 2 (Riff 1)



Guitar 1 & 2 (Chorus)
e-----------------------------------------------------------
B-----------------------------------------------------------
G--555555555555555555555555--3333333333333333333333333333333
D--555555555555555555555555--3333333333333333333333333333333
A--333333333333333333333333--1111111111111111111111111111111
E-----------------------------------------------------------
   Fighting crime trying to, save the world. Here they come,
   just in ti--------me the, Pow-erpuff Girls.   2X


Guitar 2 (Solo)
e----------------------------------------------------
B----------------------------------------------------
G------------------(Keyboard Solo)-------------------
D---------2--5-4-2-------------------------2--5-5/7--
A--0-0--3---------------------------0-0--3-----------
E----------------------------------------------------

e-------------------------
B-------------------------
G-------------------------
D-------------------------
A------------5-4-Let-Ring-  (Drum Solo)
E--0---3--0---------------

e-------------------------------------------------
B---------------------------------2--5-4-Let-Ring-
G---------------------2--5-4--2-3-----------------
D---------2--5-4--2-3-----------------------------
A--0-0--3-----------------------------------------
E-------------------------------------------------

e-----------------
B--0-0-0---3-2-0--
G--------2--------
D-----------------
A-----------------
E-----------------


Guitar 1 (Final Chorus)
e-----------------------------------------|------------------
B---1-----1-------1---|-1-----1-------1---|-111---1-------1--
G-----0-0---0-3-3---0-|---0-0---0-3-3---0-|-----0---0-3-3---0
D-----------------------------------------|------------------
A-----------------------------------------|------------------
E-----------------------------------------|------------------

Guitar 2 (Final Chorus)  
e-----------------------------------------------------------
B-----------------------------------------------------------
G--555555555555555555555555--3333333333333333333333333333333
D--555555555555555555555555--3333333333333333333333333333333
A--333333333333333333333333--1111111111111111111111111111111
E-----------------------------------------------------------
   Fighting crime trying to, save the world. Here they come,
   just in ti--------me the, Pow-erpuff Girls.   4X


Guitar 2 (Outro)
e--------------------------------------------------------
B--------------------------------------------------------
G--------------------------------------------------------
D---------2--5-4-Let-Ring~~~~~~~~~~~~~~~~~~~~~~~~~~~~~~~~
A--0-0--3------------------------------------------------
E--------------------------------------------------------

     
Добавлено: 20.07.2013
Другие материалы по этой песне:
  • Аккорды и текст

Страница создана 20.07.2013
http://primanota.ru/us/powerpuff-girls-chords.htm
Привет, Гость.
Предлагаем пройти революционный курс по гитаре.
Подарок от PrimaNota.Ru, забирай!