PrimaNota.ru - самый крупный в мире бесплатный архив песенных текстов, аккордов, табулатур и нот


Us - More Than A Friend - аккорды и текст, видео

Регистрация Запомнить меня
Войти через:  Facebook Google Twitter Vk Yandex Mail.ru

Us - More Than A Friend - аккорды и текст, видео

Печатать
Просмотров: 221
More Than A Friend
Us
This is an easier song than it sounds, just tune it to Open, (D, A, D, G,
A, D) and play the "open" chords. Completely acoustic.

d--0-----0-----0-----0---
A--0-----0-----0-----0---
G--7-----2-----4-----0---
D--7-----2-----4-----5---
A--5-----0-----2-----5---
D--0-----0-----0-----5---
Verse Chords ^^^ Repeat them for every line. Every Verse

d--0-----0-----0------0----|-0*-
A--0-----5-----12-----0----|-0--
G--7-----7-----14-----7----|-2--
D--7-----4-----11-----7----|-2--
A--5-----0-----0------5----|-0--
D--0-----0-----0------0----|-0--
Chorus Chords ^^^ Repeat twice every chorus. Not '*' on second time.

d--0-----0-----0------
A--0-----0-----0------
G--2-----7-----11-----
D--2-----7-----11-----
A--0-----5-----9------
D--0-----0-----0------
Bridge Chords, repeat them as many times as needed.


d--0-----0-----0--
A--0-----0-----0--
G--7-----4-----2--
D--7-----4-----2--
A--5-----2-----0--
D--0-----0-----0--
End On ^^^

Easy to play acoustic song, thank you, and have a nice day.
     
Добавлено: 22.11.2013
Другие материалы по этой песне:
  • Аккорды и текст

Страница создана 22.11.2013
http://primanota.ru/us/more-than-a-friend-chords.htm
Привет, Гость.
Предлагаем пройти революционный курс по гитаре.
Подарок от PrimaNota.Ru, забирай!