PrimaNota.ru - самый крупный в мире бесплатный архив песенных текстов, аккордов, табулатур и нот


Us - Fun - таба, видео

Регистрация Запомнить меня
Войти через:  Facebook Google Twitter Vk Yandex Mail.ru

Us - Fun - таба, видео

Печатать
Просмотров: 223
"F.U.N." From Nickelodeon's "Sponge Bob Square Pants"
As recorded by Us.            Tabed by Froggy51088@aol.com 
          
Cover Written by...                    
Us     (Guitar 1/Vocals 1), Matt Degonish)        
       (Guitar 2/Vocals 2), Zach Van Horn) 
       (Keyboard, Jocelyn Compliment)    
       (Percussion, Jadie Paradise)

Verse One (Guitar 2, Vocal 1)
e------------------------------------------
B------------------------------------------
G--555555555555555555555-------------------
D--555555555555555555555-55555555555555555-
A--333333333333333333333-55555555555555555-
E------------------------33333333333333333-
   F is for Friends that do stuff together.
   U is for U and        me.
   N is for Newhere and  Ne time at all.
   
e---------------------------------------
B---------------------------------------
G--55555555555555555555555555-5~~~~~~~~~
D--55555555555555555555555555-5-HOLD~~~~
A--33333333333333333333333333-3~~~~~~~~~
E---------------------------------------
   Down here in the deep blue sea.

Repeat for Verse 2 (Guitar 1, Vocal 2)
Repeat for Verse 3 (Guitars 1&2, Vocals 1&2)

Solo (Guitar 1)    (Guitar 2 Repeat Verse)
e-----------------------------------------
B-----------------------------------------
G--------------------0---------0----------
D--------2---------2---------2---0-Ring---
A--3-3-3---3-3-3-3-----3-3-3--------------
E-----------------------------------------

e-----------------------------------------
B-----------------------------------------
G--------------------0-3-3-3--------------
D--------2---------2---------2-0----------
A--3-3-3---3-3-3-3---------------3-Ring---
E-----------------------------------------

Repeat for Verse 4 (Guitars 1&2, Vocals 1&2) Until Fade...

     
Добавлено: 21.08.2013
Другие материалы по этой песне:
  • Аккорды и текст

Страница создана 21.08.2013
http://primanota.ru/us/fun-chords.htm
Привет, Гость.
Предлагаем пройти революционный курс по гитаре.
Подарок от PrimaNota.Ru, забирай!