PrimaNota.ru - самый крупный в мире бесплатный архив песенных текстов, аккордов, табулатур и нот


Us Royalty - Hollywood Hollows - бас-таба, видео

Регистрация Запомнить меня
Войти через:  Facebook Google Twitter Vk Yandex Mail.ru

Us Royalty - Hollywood Hollows - бас-таба, видео

Печатать
Просмотров: 60
Hollywood Hollows by U.S. Royalty
Tabbed by loronium
Email: theclassifieduser@gmail.com

Tuning: Standard

4/4
    Q=87
    E E E E E E E E 12x E E H.          E E E E E E E E 12x
||-------------------||-------------||-------------------||-|
||o-5---5-----3-----o||-5-----------||o-5---5-----3-----o||-|
||o---------5---5-3-o||-------------||o---------5---5-3-o||-|
||-------------------||-------------||-------------------||-|


  E E E E E E E E   E E E E E E E E
|-----------------|-----------------|
|-5---5-----3-----|-5---5-----3-----|
|---------5---5-3-|---------5---5-3-|
|-----------------|-----------------|


  Q=94
  E E E E E E E E   E E E E E E E E   E E E E E E E E   E E E   E E  E E E
|-----------------|-3-3-3-3-3-------|-----------------|--------------------|
|-----------------|-----------------|-3-3-3-3-3-3-3-3-|--------10-8--------|
|-3-3-3-3-3-3-3-3-|-------------1-3-|-----------------|-3-3-3/------10-8-3-|
|-----------------|-----------3-----|-----------------|--------------------|


  E E E E E E E E   E E E E E E E E   E E E E E E E E   E E E E E
|-----------------|-3-3-3-3-3-3-3-3-|-----------------|-----------|
|-----------------|-----------------|-3-3-3-3-3-3-3-3-|-----------|
|-3-3-3-3-3-3-3-3-|-----------------|-----------------|-3-3-3-3-3-|
|-----------------|-----------------|-----------------|-----------|


  Q=87
  E E H.        E E H.        Q  H.        Q
|-------------|-------------|------------|----|
|-5-3---------|-------------|------------|----|
|-----5~------|-5-3-1~------|-1----------|----|
|-------------|-------------|----1~------|----|


                                          H=H
    E E E E E E E E 18x E E E E E E E E   E E E E E E E E
||-------------------||-----------------|-----------------|
||o-5---5-----3-----o||-5---5-----3-----|-5---5-----3-----|
||o---------5---5-3-o||---------5---5-3-|---------5---5-3-|
||-------------------||-----------------|-----------------|


  Q=94
  E E E E E E E E   E E E E E E E E    E E E E E E E E   E E E E E E E E
|-----------------|-3-3-3-3-3-3------|-----------------|-----------------|
|-----------------|------------------|-3-3-3-3-3-3-3-3-|-----------------|
|-3-3-3-3-3-3-3-3-|---------------1/-|-----------------|-3-3-3-3-3-3-3-3-|
|-----------------|-------------3----|-----------------|-----------------|


  E E E E E E E E   E E E E E E E E   E E E E E E E E   E E E E E E E E
|-----------------|-3-3-3-3-3-3-3-3-|-----------------|-----------------|
|-----------------|-----------------|-3-3-3-3-3-3-3-3-|-----------------|
|-3-3-3-3-3-3-3-3-|-----------------|-----------------|-3-3-3-3-3-3-3-3-|
|-----------------|-----------------|-----------------|-----------------|


  E E E E E E E E   E E E E E E E E   E E E E E E E E   E E E E E E E E
|-----------------|-3-3-3-3-3-------|-----------------|-----------------|
|-----------------|-----------------|-3-3-3-3-3-3-3-3-|-----------------|
|-3-3-3-3-3-3-3-3-|-------------1-3-|-----------------|-3-3-3-3-3-3-3-3-|
|-----------------|-----------3-----|-----------------|-----------------|


  E  E  E  E  E  E  E  E   E E E E E E E E   E E E E E E E E   E E E E E E E E
|------------------------|-----------------|-----------------|-----------------|
|-3s10-10-10-10-10-10-10-|-8-8-8-8-8-8-8-8-|-3-3-3-3-3-3-3-3-|-----------------|
|------------------------|-----------------|-----------------|-3-3-3-3-3-3-3-3-|
|------------------------|-----------------|-----------------|-----------------|


  E E E E E E E E   E E E E E E E E    E E E E E E E E   E E E E E E E E
|-----------------|-3-3-3-3-3-3------|-----------------|-----------------|
|-----------------|------------------|-3-3-3-3-3-3-3-3-|-----------------|
|-3-3-3-3-3-3-3-3-|---------------1/-|-----------------|-3-3-3-3-3-3-3-3-|
|-----------------|-------------3----|-----------------|-----------------|


  E E E E E E E E   E E E E E E E E    E E E E E E E E   E E E E E E E E
|-----------------|-3-3-3-3-3-3------|-----------------|-----------------|
|-----------------|------------------|-3-3-3-3-3-3-3-3-|-----------------|
|-3-3-3-3-3-3-3-3-|---------------1/-|-----------------|-3-3-3-3-3-3-3-3-|
|-----------------|-------------3----|-----------------|-----------------|


  E  E  E  E  E  E E  E   E E E E E E E E   E E E E E E E E   E E E E E E E E
|---------------10-8----|-----------------|-----------------|-----------------|
|-3s10-10-10-10------10-|-8-8-8-8-8-------|-3-3-3-3-3-3-3-3-|-----------------|
|-----------------------|-------------1-3-|-----------------|-3-3-3-3-3-3-3-3-|
|-----------------------|-----------3-----|-----------------|-----------------|


  E  E  E  E  E  E  E  E   E E E E E E E E
|------------------------|------------------|
|-3s10-10-10-10-10-10-10-|-8-8-8-8-8-8------|
|------------------------|---------------1/-|
|------------------------|-------------3----|


  E E E E E E E E   E E E E E E E E
|-----------------|-----------------|
|-3-3-3-3-3-3-3-3-|-----------------|
|-----------------|-3-3-3-3-3-3-3-3-|
|-----------------|-----------------|


  Q=87
  E E H.        E E H.        Q  H.        Q
|-------------|-------------|------------|----|
|-5-3---------|-------------|------------|----|
|-----5-------|-5-3-1-------|-1----------|----|
|-------------|-------------|----1-------|----|


  E E E E E E E E   E E E E E E E E   E E E E E E E E   E E E E E E Q
|-----------------|-----------------|-----------------|----------------|
|-5---5-----3-----|-5---5-----3-----|-5---5-----3-----|-5---5-----3----|
|---------5---5-3-|---------5---5-3-|---------5---5-3-|---------5------|
|-----------------|-----------------|-----------------|----------------|





Duration Legend
---------------
W - whole; H - half; Q - quarter; E - 8th; S - 16th; T - 32nd; X - 64th; a - acciaccatura
+ - note tied to previous; . - note dotted; .. - note double dotted
Uncapitalized letters represent notes that are staccato (1/2 duration)
Irregular groupings are notated above the duration line
Duration letters will always appear directly above the note/fret number it represents the
duration for.  Duration letters with no fret number below them represent rests.  Multi-
bar rests are notated in the form Wxn, where n is the number of bars to rest for.  Low
melody durations appear below the staff

Tablature Legend
----------------
 h   - hammer-on
 p   - pull-off
 b   - bend
 pb  - pre-bend
 r   - bend release (if no number after the r, then release immediately)
 /\  - slide into or out of (from/to "nowhere")
 s   - legato slide
 S   - shift slide
 - natural harmonic
[n]  - artificial harmonic
n(n) - tapped harmonic
 ~   - vibrato
 tr  - trill
 T   - tap
 TP  - trem. picking
 PM  - palm muting
\n/  - tremolo bar dip; n = amount to dip
 \n  - tremolo bar down
 n/  - tremolo bar up
/n\  - tremolo bar inverted dip
 =   - hold bend; also acts as connecting device for hammers/pulls
 <> - volume swell (louder/softer)
 x   - on rhythm slash represents muted slash
 o   - on rhythm slash represents single note slash

Misc Legend
-----------
 |  - bar
||  - double bar
||o - repeat start
o|| - repeat end
*|  - double bar (ending)
 :  - bar (freetime)
 $  - Segno
 &  - Coda
Tempo markers -  = BPM(8/16=s8/s16), where s8 = swing 8ths, s16 = swing 16ths
Добавлено: 08.06.2016
Вам также может быть интересно:
Другие материалы по этой песне:
  • Аккорды и текст

Страница создана 08.06.2016
http://primanota.ru/us-royalty/hollywood-hollows-chords.htm
Привет, Гость.
Предлагаем пройти революционный курс по гитаре.
Подарок от PrimaNota.Ru, забирай!