PrimaNota.ru - самый крупный в мире бесплатный архив песенных текстов, аккордов, табулатур и нот


Uriah Heep - Universal Wheels - аккорды и текст, видео

Регистрация Запомнить меня
Войти через:  Facebook Google Twitter Vk Yandex Mail.ru

Uriah Heep - Universal Wheels - аккорды и текст, видео

Печатать
Просмотров: 135
Universal Wheels
Uriah Heep
FOR THE BASS Intro: Trevor has tuned his bass guitar down one
 note. On a retuned bass guitar, the Intro will look like this:
 Bass Intro: (keep repeating - watch the tuning!)
  [F---------------------------------------------------------------
 C---------------------------------------------------------------
 G-7-------5---------7-------------7-------5---------7-----------
 D---0-3-5---0-3-5-7---7-5-7-0-3-5---0-3-5---0-3-5-7---7-5-etc..-]
 If you must play this with normal tuned bass guitar,
 this is how I would have played it (one actave higher):
 [G-7-------5---------7-------------7-------5---------7-----------
 D---0-3-5---0-3-5-7---7-5-7-0-3-5---0-3-5---0-3-5-7---7-5-etc..-
 A---------------------------------------------------------------
 E---------------------------------------------------------------]
  Guitar Intro: (played twice)
 Dm      F/D G/D
 [E---------5--7-------------------------
 B---------6--8-------------------------
 G---------5--7-------------------------
 D-7-6-7---------7-6-7------------------
 A-5-4-5---------5-4-5---5-2-3-2-3-2----
 E-----------------------------------3--]
  
 Dm          F/D       G/D
 verse:		All the fields are smoke and flame
 Dm            F/D-G/D
 Fire in the sky
 Dm                F/D   G/D
 It's a state of emergency
 Dm               F/D-G/D
 Much more than meets the eye
 Dm         C/D      G/D
 Just hide away your tears
 Dm                 F      G
 There are many more hidden fears
 Bb         F        G       Dm
 As the universal wheels go round'n'round
  Guitar Intro
  verse:		Rivers of pollution
 Taking life from living things
 Running out of oxygen
 There's no way to win
 We ignore the signs of nature
 Got to learn to live beside her
 Bb         F       G        Am
 As the universal wheels go round'n'round
  B                C                B
 middle 8:	Better take good care of all the things
 C - Am
 You say and do
 B                C
 Look out for the warning sign
 B              C
 Now it's up to you
  Play the chord 'F' over 16 bars!
 Am - Am/F# - Am/G - Am - Am/F# - Am/G
 Play the chord 'F' over 8 more bars!
 Am - Am/F# - Am/G - Am - Am/F# - Am/G
 Bm - Bm/G# - Bm/A
  Guitar:		[E---------------------
 B---------------------
 G--9---7---5---4---2--
 D-9-9-7-7-5-5-3-3-2-2-
 A---------------------
 E---------------------]
  organ solo - (play guitar Intro behind it)
  verse:		There's a might eight point six
 Waiting in the ground
 When she opens up
 This world will humble to the sound
 There is only one one real power
 Creating life by the hour
 Bb         F       G     Bb          F       G
 See the universal wheels, see the universal wheels
 Bb        F       G         Dm
 See the universal wheels go round'n'round
Добавлено: 17.02.2014
Другие материалы по этой песне:
  • Аккорды и текст

Страница создана 10.02.2014
http://primanota.ru/uriah-heep/universal-wheels-chords.htm
Привет, Гость.
Предлагаем пройти революционный курс по гитаре.
Подарок от PrimaNota.Ru, забирай!