PrimaNota.ru - самый крупный в мире бесплатный архив песенных текстов, аккордов, табулатур и нот


Uriah Heep - Time To Live - текст песни, таба, бас-таба, видео

Регистрация Запомнить меня
Войти через:  Facebook Google Twitter Vk Yandex Mail.ru

Uriah Heep - Time To Live - текст песни, таба, бас-таба, видео

Печатать
Просмотров: 259
Авторы: Ken Hensley, Mick Box, David Byron

Rhytm tab for Uriah Heep's Time to Live from Salisbury.

Intro

|-------------------------------------|
|-------------------------------------|
|-------------------9-----8-----10----|
|-5-----3-----5-----9-x8--8-x8--10-x8-|
|-5-x4--3-x8--5-x4--7-----6-----8-----|
|-3-----1-----3-----------------------|

|----------------------------------------------|
|----------------------------------------------|
|-12-----10-----12-----9-----8-----10----------|
|-12-x4--10-x8--12 x4--9-x8--8-x8--10-x8-------|
|-10-----8------10-----7-----6-----8-----------|
|----------------------------------------------|

Rhytm during Solo and verse

Riff A
|---------------------------------------|
|---------------------------------------|
|---------------5-5----8-8-10--10-------|
|-5-5----8-8----5-5----8-8-10-10--------|
|-5-5----8-8----3-3----6-6-8--8---------|
|-3-3----6-6----------------------------|

Riff B

|------------------------------------|
|------------------------------------|
|-8-8--7-7--5-5--3-2-----------------|
|-8-8--7-7--5-5--3-2-----------------|
|-6-6--5-5--3-3--1-0-----------------|
|------------------------------------|

Rhytm follow up for whole song.

Intro
Riff A x 2
Riff A x 3
Riff B x 2
Riff A x 3
Riff B x 2
Intro
Riff A x 2
Riff A x 3
Riff B x 2
Riff A x 3
Riff B x 2
Riff A till end

This is my first tablature posted here. I believe this is correct except for the intro 
very last part. I am unsure about that.
Добавлено: 21.03.2012
Другие материалы по этой песне:

Страница создана 21.03.2012
http://primanota.ru/uriah-heep/time-to-live-chords.htm
Привет, Гость.
Предлагаем пройти революционный курс по гитаре.
Подарок от PrimaNota.Ru, забирай!