PrimaNota.ru - самый крупный в мире бесплатный архив песенных текстов, аккордов, табулатур и нот


Uriah Heep - Spider Woman - текст песни, бас-таба, видео

Регистрация Запомнить меня
Войти через:  Facebook Google Twitter Vk Yandex Mail.ru

Uriah Heep - Spider Woman - текст песни, бас-таба, видео

Печатать
Просмотров: 305
Уроки эстрадного вокала в Санкт-Петербурге
Авторы: Mick Box, Gary Thain, Lee Kerslake, David Byron

SPIDER WOMAN (Bassline)
by Uriah Heep
From the Album THE MAGICIAN'S BIRTHDAY

Transcribed by MRFairbrother

Intro
    Moderately Fast Rock Q=150(8=s8)
4/4
    E E Q  E E Q    E E E E +H       E E Q  E E Q    E E E E +H
||----------------|----------------|---------------|-----------------||
||o---------------|----------------|---------------|----------------o||
||o-7-7----7-7----|-7-7-5-0-(0)----|-7-7----7-7----|-7-7-5-0-(0)----o||
||------0------0--|----------------|-----0------0--|-----------------||


 Verse
  E E E E E E E E   E E E E E E E E   E E E E E E E E   E E E E E E E E
|-----------------|-----------------|-----------------|-----------------|
|-----------------|-----------------|---------4-4-5-5-|-7-7-------------|
|-7-7-7-7-7-7-7-7-|-7-7-7-7-7-7-6-6-|-5-5-7-7---------|---------3-3-4-4-|
|-----------------|-----------------|-----------------|-----5-5---------|


  E E E E E E E E   E E  E  E  E  E Q      E E Q  E E Q    E E E E +H
|-----------------|-----11-11-10-10-9--||----------------|-----------------||
|---------4-4-5-5-|-7-7----------------||o---------------|----------------o||
|-5-5-7-7---------|--------------------||o-7-7----7-7----|-7-7-5-0-(0)----o||
|-----------------|--------------------||------0------0--|-----------------||


                                                                    |-3-|
  E E E E E E E E   E E E E E E E E   E E E E E E E E   E E E E E E E E E
|-----------------|-----------------|-----------------|--------------------|
|-----------------|-----------------|---------4-4-5-5-|-7-7-7-7-7---7-5----|
|-7-7-7-7-7-7-7-7-|-7-7-7-7-7-7-6-6-|-5-5-7-7---------|-----------7-----7--|
|-----------------|-----------------|-----------------|--------------------|


  E E E E E E E E   E E E E E E E E     E E Q  E E Q    E E E E +H
|-----------------|-----------------||----------------|-----------------||
|-----4-4-5-5-6-6-|-7-7-------------||o---------------|----------------o||
|-5-5-------------|-----4-4-5-5-6-6-||o-7-7----7-7----|-7-7-5-0-(0)----o||
|-----------------|-----------------||------0------0--|-----------------||


   Chorus
    Q  Q  H      E E E E S E. Q    Q  Q  H      E E S E. +H
||-------------|-----------------|------------|------------------||
||o------------|-----------------|------------|-----------------o||
||o-------0----|-5---5---5-0-----|-------0----|-5---5-0--(0)----o||
||--0--3-------|--------------3--|-0--3-------|------------------||


 Interlude
  W          W          W            E E E E E E E E   E E E E E E E E
|----------|----------|----------||------------------|------------------||
|----------|----------|----------||o-----------------|-----------------o||
|----------|----------|----------||o-----------------|-----------------o||
|-4--------|-3--------|-2--------||--1-1-1-1-1-1-1-1-|-0-0-0-0-0-0-0-0--||


  E E E E E E E E    E E E E E E E E    E E E E E E E E   E E  E  E  E  E E E
|-----------------|------------------|------------------|-----12-12-14-14-----|
|-----------------|------------------|----------5-5-7-7-|---------------------|
|-----------------|------------------|------7-7---------|-0-0-------------0-0-|
|-1-1-0-0-1-1-2-2-|-/3-3-2-2-3-3-4-4-|-/5-5-------------|---------------------|


    E E E E E E E E   E E E E E E E E     E E E E E E E E    E E E E E E E E
||------------------|------------------||-----------------|-------------------|
||o-----------------|-----------------o||-----------------|-------------------|
||o-----------------|-----------------o||-----------------|------2-2-3-3-4-4--|
||--1-1-1-1-1-1-1-1-|-0-0-0-0-0-0-0-0--||-1-1-0-0-1-1-2-2-|-/3-3--------------|


  E E Q  E E Q    E E E E +H       E E Q  E E Q    E E E E +H
|---------------|----------------|---------------|----------------||
|---------------|----------------|---------------|----------------||
|-7-7----7-7----|-7-7-5-0-(0)----|-7-7----7-7----|-7-7-5-0-(0)----||
|-----0------0--|----------------|-----0------0--|----------------||


 Verse
                                                        |-3-|
  E E E E E E E E   E E E E E E E E   E E E E E E E E   E E E E E E E E E
|-----------------|-----------------|-----------------|--------------------|
|-----------------|-----------------|---------4-4-5-5-|-7-5----------------|
|-7-7-7-7-7-7-7-7-|-7-7-7-7-7-7-6-6-|-5-5-7-7---------|-----7-----3-3-4-4--|
|-----------------|-----------------|-----------------|-------5-5----------|


  |-3-|
  E E E E E E E E E    E E E E E E E E     E E Q  E E Q    E E E E +H
|-------------------|------------------||----------------|-----------------||
|-------------------|------------------||o---------------|----------------o||
|-5-3---------------|------4-4-5-5-6-6-||o-7-7----7-7----|-7-7-5-0-(0)----o||
|-----5-0-0-2-2-3-3-|-/5-5-------------||------0------0--|-----------------||


   Out-Chorus
    Q  Q  H      E E E S S E E Q    Q  Q  H
||-------------|------------------|------------|
||o------------|------------------|------------|
||o-------0----|-5---5---5-0-0----|-------0----|
||--0--3-------|---------------3--|-0--3-------|


 1.                    2.
  E S S S E. +H         E E S E. H
|--------------------||-------3s14----|
|-------------------o||---------------|
|-5---5-5-0--(0)----o||-5---5---------|
|--------------------||---------------|


    Q  Q  H      E E E S S E E Q    Q  Q  H      E E S E. +H         +W
||-------------|------------------|------------|------------------||--------*|
||o------------|------------------|------------|-----------------o||--------*|
||o-------0----|-5---5---5-0-0----|-------0----|-5---5-0--(0)----o||-(0)----*|
||--0--3-------|---------------3--|-0--3-------|------------------||--------*|
Добавлено: 23.10.2013
Другие материалы по этой песне:
  • Аккорды и текст

Страница создана 05.04.2012
http://primanota.ru/uriah-heep/spider-woman-chords.htm
Привет, Гость.
Предлагаем пройти революционный курс по гитаре.
Подарок от PrimaNota.Ru, забирай!