PrimaNota.ru - самый крупный в мире бесплатный архив песенных текстов, аккордов, табулатур и нот


Uriah Heep - Simon The Bullet Freak - текст песни, таба, видео

Регистрация Запомнить меня
Войти через:  Facebook Google Twitter Vk Yandex Mail.ru

Uriah Heep - Simon The Bullet Freak - текст песни, таба, видео

Печатать
Просмотров: 227
Уроки эстрадного вокала в Санкт-Петербурге
Авторы: Ken Hensley



          SIMON THE BULLET FREAK (Hensley)

Riff 1 

     G5               D5             C5               G5    F5 
E------------------------------------------------------------------------------- 
B------------------------------------------------------------------------------ 
G------------------------------------------------------------------------------ 
D---------------------7----7----------5-----5-------------------------------- 
A----5----5-----------5----5----------3-----3----------5--5--3----5--------- 
E----3----3--------------------------------------------3--3--1----3--------- 

Riff 2 

    G5      F5        G5    F5   G5 
E-------------------------------------------------------------------------------------- 
B------------------------------------------------------------------------------------- 
G------------------------------------------------------------------------------------- 
D------------------------------------------------------------------------------------- 
A---5-------3---------5--5--3----5------------------------------------------------- 
E---3-------1---------3--3--1----3------------------------------------------------- 

Riff 3 (bridge) x3 

E---------------------------------|------------------------------------------------------- 
B---------------------------------|-------------------------------------------------------- 
G---------------------------------|-------------------------------------------------------- 
D---------------------------------|------------------------------------------------------- 
A-----5----5---5--6--5---3--5-----|----5-6-5-3--5-6-5-3--5-6-5-3--5-6-5-3-5----------- 
E---------------------------------|------------------------------------------------------- 

Solo # 1 x2 
E------------------------------------------| 
B------------------------------------------| 
G---5b7----5b7r5--3------3----5---5b7------| 
D---------------------5--------------------| 
A------------------------------------------| 
E------------------------------------------| 

(Release and bend 3 times with alot of vibrating in the end) 

E----------------------------------------------------------------------------------------- 
B----------------------------------------------------------------------------------------- 
G---5b7----5b7r5--3------3----5-----5b7r5b7r5b7------------------------------------------- 
D----------------------5------------------------------------------------------------------ 
A----------------------------------------------------------------------------------------- 
E----------------------------------------------------------------------------------------- 

E----------------------------------------------------------------------------------------- 
B---13b15----13b15r13--11-------11---13--13b15-------------------------------------------- 
G-----------------------------12---------------------------------------------------------- 
D----------------------------------------------------------------------------------------- 
A----------------------------------------------------------------------------------------- 
E----------------------------------------------------------------------------------------- 

E---13b15r13--10-----------10---13---13b15----13b15r13--10-----------10---13---13b15------ 
B-------------------13b14--------------------------------------13b14---------------------- 
G----------------------------------------------------------------------------------------- 
D----------------------------------------------------------------------------------------- 
A----------------------------------------------------------------------------------------- 
E----------------------------------------------------------------------------------------- 

Riff 4 x3 
E----------------------------------------------------------------------------------------- 
B----(Vibrate 'Eavily)-------------------------------------------------------------------- 
G-------12b14---------12b14r12---10-----------10s5---------------------------------------- 
D------------------------------------------12--------------------------------------------- 
A----------------------------------------------------------------------------------------- 
E----------------------------------------------------------------------------------------- 

Solo # 2 repeat til the end 

E--13b15---13b15r13--10-----------10---13--|---13--13b15r13--10--------------10--13-----| 
B---------------------------13b14----------|------------------------13b14---------------| 
G------------------------------------------|--------------------------------------------| 
D------------------------------------------|--------------------------------------------| 
A------------------------------------------|--------------------------------------------| 
E------------------------------------------|--------------------------------------------| 

Intro Riff 1 x2 

Riff 1 
Freed of empty faces 
Give me your money 
Make my life sunny for a day 
Road that leads to nowhere 
Please stop your crying 
I ain't fit for dying this way 

Riff 2 
Go steal another with your eye 
Go try some other heartless lie 

Riff 1 
Land of hopeless speaking 
Bringing back the moon 
Don't play your silly games with me 
Oh, war of wasted daydream 
What is your need 
I'm gonna bleed until you kill me 

Riff 2 
You've lost all sight of your direction 
You're only looking for the next one 
The next one to kill 

Riff 3 

Solo #1 

Riff 1 
Ashes of destruction 
Spread out so far 
Blackened others crying over me 
See a one time city 
Now just a scar 
Tears of the flower man Fill the sea 

Riff 2 
Give me a chance to fly away 
There's nothing here for me today 
Today 

Riff 3 and 4 are played at the same time by two guitars

Solo # 2 
Simon the bullet freak ... 

Добавлено: 08.09.2013
Другие материалы по этой песне:

Страница создана 03.03.2012
http://primanota.ru/uriah-heep/simon-the-bullet-freak-chords.htm
Привет, Гость.
Предлагаем пройти революционный курс по гитаре.
Подарок от PrimaNota.Ru, забирай!