PrimaNota.ru - самый крупный в мире бесплатный архив песенных текстов, аккордов, табулатур и нот


Urgehal - Nekromisantrop - бас-таба, видео

Регистрация Запомнить меня
Войти через:  Facebook Google Twitter Vk Yandex Mail.ru

Urgehal - Nekromisantrop - бас-таба, видео

Печатать
Просмотров: 98
G|-----------------------------------------------------------------|
D|-----------------------------------------------------------------|
A|---------------------------------------------2-2-----------------|x6
E|-0-0-1-1-0-0-0-0-0-0-4-4-4-4-4-4-0-0-1-1-0-0-----3-3-4-4-4-4-4-4-|

G|-------------------------------------------------------------------------|
D|-------------------------------------------------------------------------|
A|-3-------------------------------3---------------------------------------|x2
E|---5-4-4-4-4-4-4-5-3-4-4-4-4-4-4---5-4-4-0-0-1-1-0-0-0-0-0-0-3-3-3-3-3-3-|

G|-----------------------------------------------------------------|
D|-----------------------------------------------------------------|
A|---------------------------------------------2-2-----------------|x6
E|-0-0-1-1-0-0-0-0-0-0-4-4-4-4-4-4-0-0-1-1-0-0-----3-3-4-4-4-4-4-4-|

G|-------------------------------------------------------------------------|
D|-------------------------------------------------------------------------|
A|-3-------------------------------3---------------------------------------|x2
E|---5-4-4-4-4-4-4-5-3-4-4-4-4-4-4---5-4-4-0-0-1-1-0-0-0-0-0-0-3-3-3-3-3-3-|

G|-------------------------------------------------------|
D|--------------------------------------6666555566667777-|
A|-----------------1111000-------------------------------|x4
E|-0000001111110000-------11444444555555-----------------|

G|-----------------------------------------------------------------|
D|-----------------------------------------------------------------|
A|-----------------------------------------------------------------|
E|-----------------------------------------------------------------|

G|-----------------------------------------------------------------|
D|-----------------------------------------------------------------|
A|-----------------------------------------------------------------|
E|-0-------------------4-----------------1-0-------3-3-4-----------|

G|-----------------------------------------------------------------|
D|-----------------------------------------------------------------|
A|---------------------------------------------2-2-----------------|x2
E|-0-0-1-1-0-0-0-0-0-0-4-4-4-4-4-4-0-0-1-1-0-0-----3-3-4-4-4-4-4-4-|

G|-------------------------------------------------------------------------|
D|-------------------------------------------------------------------------|
A|-3-------------------------------3---------------------------------------|x2
E|---5-4-4-4-4-4-4-5-3-4-4-4-4-4-4---5-4-4-0-0-1-1-0-0-0-0-0-0-3-3-3-3-3-3-|

G|-----------------------------------------------------------------|
D|-----------------------------------------------------------------|
A|---------------------------------------------2-2-----------------|x4
E|-0-0-1-1-0-0-0-0-0-0-4-4-4-4-4-4-0-0-1-1-0-0-----3-3-4-4-4-4-4-4-|

Добавлено: 15.08.2013
Другие материалы по этой песне:
  • Аккорды и текст

Страница создана 15.08.2013
http://primanota.ru/urgehal/nekromisantrop-chords.htm
Привет, Гость.
Предлагаем пройти революционный курс по гитаре.
Подарок от PrimaNota.Ru, забирай!