PrimaNota.ru - самый крупный в мире бесплатный архив песенных текстов, аккордов, табулатур и нот


Urge Overkill - Heaven 90210 - аккорды и текст, таба, видео

Регистрация Запомнить меня
Войти через:  Facebook Google Twitter Vk Yandex Mail.ru

Urge Overkill - Heaven 90210 - аккорды и текст, таба, видео

Печатать
Просмотров: 110
Авторы: Nathan Kaatrud, John Rowan, Edward Roeser

Heaven 90210
Urge Overkill
Hello out there. This is by far the hardest song I've
ever tried on my own.
 
Intro:		[-------------------------0---4--2------0---
----2--4------4-2-0------0---4--2------0---
--4------------------2h4-1---4--3h4p3--1---
--4----------------------------------------
--2--------2-------------------------------
-------------------------------------------

-------------------------------------------------
-0-/4-4-2-0-2-2h4---4-2---2---0------------------
------------------------4---4--------------------
----------------------------------4-4-6-4-6-6-4--
----------------------------------2-2-2-2-2-2-2--
-------------------------------------------------

Verse:		  F#  E
--2---0-----
--2---0-----
--3---1-----
--4---2-----
--4---2-----
--2---0-----]
You see them coming, the queen of hearts and the king of fools
Me and Innocence, playing cards by the swimming pool.
They took me out of an empty place, left me all alone I wanna touch you.
[------------------------------------------------------------
------------------------------------------------------------
------------------------------------------------------------
------------------------------------------------------------
--4-4-6-4-4-4-6-4-4-4-6-4-4-4-6-----6-6-8-6-6-6-8-6-6-6-8-6-
--2-2-2-2-2-2-2-2-2-2-2-2-2-2-2-----4-4-4-4-4-4-4-4-4-4-4-4-]
B E G#m            F#
Think I'm movin' on back to Kansas
B                 A5               F#
And I thought that savin' you would save me.

Chorus:		When she comes to me and takes my hand
When pain is all I know
She gives me heaven with thrills, 90210.
[--------------------------------------
--------------------------------------
---------4-2-1------------------------
-4-4-6-4-------4----------------------
-2-2-2-2-------2----------2h4-4-2-----
-----------------------2h4------------

--------------------------------------------------------------------
--------------------------------------------------------------------
-2-1---1-2-------2-1---1-2-----1/4---------4-2-1----------2h4-------
-----4-------2-------4-------2-------4-6-4-------4-----2h4----------
-----------0---0-----------0---------2-2-2----------2h4-------------
--------------------------------------------------------------------

------------------------------------------------------6-------------
--------------------------------------------------------------------
-2-1---1-2-------2-1---1-2-----1/4--1----4--1----/6b8---6p4/1-------
-----4-------2-------4-------2---------4----------------------------
-----------0---0-----------0----------------------------------------
--------------------------------------------------------------------]
G#m        F#                 E
Lookin' at you as the sun was risin'
G#m        F#           E            B
Nothin' to do just-a look at the man upon the moon
Bb             G#m         F#          E
Look into his eyes and the sad blue glow, and it ain't surprisin', no
         G#m       F#      B                  F#
To see a blind man lookin' twice before he crosses the road, yeah.
B          A5 E  G#m            F#
Califor-ni-a,        don't fall into the sea on me.
B              A5             F#
The sun still shines in LA when you're gone.
[--------------------------------------------------------------
-0h4-4-2-0-2h4---4-2------------------------------------------
---------------------4-------------4-2-1----------------------
-------------------------4/6/4-----4-2-2----------------------
-----------------------2-------2---------2h4/9----------------
--------------------------------------------------------------]
Добавлено: 10.10.2013
Другие материалы по этой песне:
  • Аккорды и текст

Страница создана 28.03.2012
http://primanota.ru/urge-overkill/heaven-90210-chords.htm
Привет, Гость.
Предлагаем пройти революционный курс по гитаре.
Подарок от PrimaNota.Ru, забирай!