PrimaNota.ru - самый крупный в мире бесплатный архив песенных текстов, аккордов, табулатур и нот


Urfaust - Drudenfuss - таба, видео

Регистрация Запомнить меня
Войти через:  Facebook Google Twitter Vk Yandex Mail.ru

Urfaust - Drudenfuss - таба, видео

Печатать
Просмотров: 195
-----------------------------------------------------------------------------
                             Drudenfuß - Urfaust
-----------------------------------------------------------------------------


    Band:  Urfaust
    Album: Geist ist Teufel
    Song:  Drudenfuß
    Copyright (c) Black Blood Productions
    Version 1.0 - 19/12/2012
    Transcribed By: ulfskeptr
    Email: malignitas-odium@hotmail.com

    http://www.myspace.com/urfaustfans


.  - palm mute           ,  - slight palm mute
\  - slide down to       /  - slide up to
~  - vibrato             b  - bend
h  - hammer on           p  - pull off
[] - second time         *  - see comment
t  - tap                 ph - pinched harmonic
x  - staccato            () - ghost note, sustained note
"  - tremolo note        <> - trill

Suffixes for bend

f  - full bend           h - half bend
q  - quarter bend        t - tap bend
^  - hold bend           r - release bend
~  - vibrato bend

Tuning E A D G B E

Riff 1

e|----------------------------------------------------------------------------|
B|----------------------------------------------------------------------------|
G|--------------~7---------------9--7--9-------------------------7-7----------|
D|--7--7--9--10--0--7--7--9--10-----------10--9--6--7--7--9--10--0----7--7--9-|
A|--0---------------0-------------------------------0-----------------0-------|
E|----------------------------------------------------------------------------|

----------------------------------------------------------------------------|
----------------------------------------------------------------------------|
----------------------------------------------------------------------------|
-10-~9--6--7----------------------------------------------------------------|
----------------------------------------------------------------------------|
----------------------------------------------------------------------------|


Riff 1 - ending 2


e|----------------------------------------------------------------------------|
B|----------------------------------------------------------------------------|
G|--------------~7---------------9--7--9-------------------------7-7-----7----|
D|--7--7--9--10--0--7--7--9--10-----------10--9--6--7--7--9--10--0----7--0--7-|
A|--0---------------0-------------------------------0-----------------0-----0-|
E|----------------------------------------------------------------------------|

----------------------------------------------------------------------------|
----------------------------------------------------------------------------|
----------------------------------------------------------------------------|
-7--7-----------------------------------------------------------------------|
-0--0--.--------------------------------------------------------------------|
-------0--------------------------------------------------------------------|


Riff 2

e|--------------------------------------------------------------------------|
B|--------------------------------------------------------------------------|
G|--------------------------------------------------------------------------|
D|-9--9-9-9-9--9--9-9-9-9--8--8-8-8-8-8--3--3-3-3-3-3-----------------------|
A|-9--9-9-9-9--9--9-9-9-9--8--8-8-8-8-8--3--3-3-3-3-3-----------------------|
E|-7--7-7-7-7--7--7-7-7-7--6--6-6-6-6-6--1--1-1-1-1-1-----------------------|


Solo 1 - guitar 1

e|---------------------------------------------------------------------------|
B|-/~10----12h15-12h15--12-12h13p12-~10--13--9--9-9--10h12-10-~10--12h15-----|
G|---------------------------------------------------------------------------|
D|---------------------------------------------------------------------------|
A|---------------------------------------------------------------------------|
E|---------------------------------------------------------------------------|

-----------------------------------------------------------------------------|
-12h15--12-12h13p12-10--13--9--9-9--10h12-13--10-~10--12h15--12h15--12-------|
-----------------------------------------------------------------------------|
-----------------------------------------------------------------------------|
-----------------------------------------------------------------------------|
-----------------------------------------------------------------------------|

-----------------------------------------------------------------------------|
-12h13p12-~10--13--9--9-9--10h12--10-~10--12h15--12h15--12-12h13p12-~10------|
-----------------------------------------------------------------------------|
-----------------------------------------------------------------------------|
-----------------------------------------------------------------------------|
-----------------------------------------------------------------------------|

-----------------------------------------------------------------------------|
-12h15--12h15--12-12h13p12-~10--13--9--9-9--10h12-10-~10--12h15-12h15--12----|
-----------------------------------------------------------------------------|
-----------------------------------------------------------------------------|
-----------------------------------------------------------------------------|
-----------------------------------------------------------------------------|

-----------------------------------------------------------------------------|
-12h13p12-10--13--9--9-9--10h12-13--10-~10--12h15--12h15--12-12h13p12-~10----|
-----------------------------------------------------------------------------|
-----------------------------------------------------------------------------|
-----------------------------------------------------------------------------|
-----------------------------------------------------------------------------|

-----------------------------------------------------------------------------|
-13--9--9-9-10h12--10-~10--12h15--12h15--12-12h13p12-~10--13--9--9-9--10h12--|
-----------------------------------------------------------------------------|
-----------------------------------------------------------------------------|
-----------------------------------------------------------------------------|
-----------------------------------------------------------------------------|

----------------------------------------------------------------------------|
-10h12--10-~10--------------------------------------------------------------|
----------------------------------------------------------------------------|
----------------------------------------------------------------------------|
----------------------------------------------------------------------------|
----------------------------------------------------------------------------|


Solo 1 - guitar 2 (rhythm)

e|-------------------------|------------------------------------------------|
B|-------------------------|------------------------------------------------|
G|--7--7--7--7--7--7--7--7-|------------------------------------------------|
D|--0--0--0--0--0--0--0--0-|------------------------------------------------|
A|-------------------------|------------------------------------------------|
E|-------------------------|------------------------------------------------|


Solo - variation (some notes at the beginning change)

e|--------------------------------------------------------------------------|
B|-~10-~10-9h10-9h10h12--15-12h112-12h13p12-10h12h13------------------------|
G|--------------------------------------------------------------------------|
D|--------------------------------------------------------------------------|
A|--------------------------------------------------------------------------|
E|--------------------------------------------------------------------------|


Structure:

Riff 1 - 5x
Riff 1 - ending 2
Riff 1 - 8x
Solo
Riff 1 - 12x
Riff 2 - 12x
Riff 1 - 6x
Solo - variation
Riff 1 - 6x
Riff 2 - till end...
Добавлено: 05.08.2013
Другие материалы по этой песне:
  • Аккорды и текст

Страница создана 05.08.2013
http://primanota.ru/urfaust/drudenfuss-chords.htm
Привет, Гость.
Предлагаем пройти революционный курс по гитаре.
Подарок от PrimaNota.Ru, забирай!