PrimaNota.ru - самый крупный в мире бесплатный архив песенных текстов, аккордов, табулатур и нот


Urban Waste - Public Opinion - таба, видео

Регистрация Запомнить меня
Войти через:  Facebook Google Twitter Vk Yandex Mail.ru

Urban Waste - Public Opinion - таба, видео

Печатать
Просмотров: 76
INTRO
E---------------------------------|
B---------------------------------|
G---9---9-9--9-9-9-6---6-6--6-6-6-|
D---9---9-9--9-9-9-6---6-6--6-6-6-| x3
A---7---7-7--7-7-7-4---4-4--4-4-4-|
E---------------------------------|

E------------------------------------------------------------------------|
B------------------------------------------------------------------------|
G---4---4-4--4-4-4-2---2-2--2-2-2-5---5-5--5-5-5-3-----3-----3--3--3--3--|
D---4---4-4--4-4-4-2---2-2--2-2-2-5---5-5--5-5-5-3-----3-----3--3--3--3--|
A---2---2-2--2-2-2-0---0-0--0-0-0-3---3-3--3-3-3-1-----1-----1--1--1--1--|
E------------------------------------------------------------------------|

RIFF 1
E-----------------------------------|
B-----------------------------------|
G---9-9-9-9-------------------------|
D---9-9-9-9-7-7-5-5-4-4-4-4-4-4-4-4-|
A---7-7-7-7-7-7-5-5-4-4-4-4-4-4-4-4-|
E-----------5-5-3-3-2-2-2-2-2-2-2-2-|

RIFF 2
E-----------------------------------|
B-----------------------------------|
G---5-5-5-5---------9-9-9-9-9-9-9-9-|
D---5-5-5-5-4-4-5-5-9-9-9-9-9-9-9-9-|
A---3-3-3-3-4-4-5-5-7-7-7-7-7-7-7-7-|
E-----------2-2-3-3-----------------|

RIFF 3
E---------------------------------------------------------------|
B---------------------------------------------------------------|
G---------------------------------------------------------------|
D---7-7-7-8--8-8-8-2--2-2-2---2-2-8-8-8-7--7-7-7-2--2-2-2---2-2-|
A---7-7-7-8--8-8-8-2--2-2-2---2-2-8-8-8-7--7-7-7-2--2-2-2---2-2-|
E---5-5-5-6--6-6-6-0--0-0-0---0-0-6-6-6-5--5-5-5-0--0-0-0---0-0-|

RIFF 4
E------------------|
B------------------|
G------------------|
D---8-8-8-7-x------|
A---8-8-8-7-x------|
E---6-6-6-5-x------|

INTRO x1
RIFF 1 x8
RIFF 2 x4
RIFF 3 x2
RIFF 1 x4
RIFF 2 x4
RIFF 3 x4
RIFF 1 x4
RIFF 2 x4
RIFF 3 x2
RIFF 4 x3
RIFF 1 x1
RIFF 2 x1
Добавлено: 03.11.2013
Вам также может быть интересно:
Другие материалы по этой песне:
  • Аккорды и текст

Страница создана 03.11.2013
http://primanota.ru/urban-waste/public-opinion-chords.htm
Привет, Гость.
Предлагаем пройти революционный курс по гитаре.
Подарок от PrimaNota.Ru, забирай!