PrimaNota.ru - самый крупный в мире бесплатный архив песенных текстов, аккордов, табулатур и нот


Urban trad - Noite Longa - бас-таба, видео

Регистрация Запомнить меня
Войти через:  Facebook Google Twitter Vk Yandex Mail.ru

Urban trad - Noite Longa - бас-таба, видео

Печатать
Просмотров: 63
-------------------------------------------------------------------------------
                             Noite Longa - Urban Trad
-------------------------------------------------------------------------------

Tabbed By : SpectralBanshee
e-mail: 

Tuning: Standard

G|-----------------------------------------------------|
D|-----------------------------------------------------|
A|-5-5-----------------------5-5-------------------5---| x8
E|------5/8-8-8-5-6-6-5-3/5------5/8-8-8-5-6-5-3-5-----|

G|-----------------------------------------|
D|-12-12--9/10/12-9/10/12-12-12-15-14-12---|
A|-----------------------------------------| x 4
E|-----------------------------------------|

G|-----------------------------------------------------|
D|-----------------------------------------------------|
A|-5-5-----------------------5-5-------------------5---| x2
E|------5/8-8-8-5-6-6-5-3/5------5/8-8-8-5-6-5-3-5-----|

G|-----------------------------------|-----|
D|-----------------------------------|-----|
A|-----------------------------------|---5-|
E|-3-3-3-3-3-3-3-3-0-0-0-0-6-6-6-3-6-|-6---|

G|-----------------------------------------------------|
D|-----------------------------------------------------|
A|-5-5-----------------------5-5-------------------5---| x2
E|------5/8-8-8-5-6-6-5-3/5------5/8-8-8-5-6-5-3-5-----|

G|-----------------------------------------|
D|-12-12--9/10/12-9/10/12-12-12-15-14-12---|
A|-----------------------------------------| x 4
E|-----------------------------------------|



G|---------------------------------------------------------------------------|
D|------------------------------------------8--8--5-7-7-8-8-11-11-14-11------|
A|-5--5--7--7--8--8--10-7--7--5--5--7--7--8----------------------------------| x2
E|---------------------------------------------------------------------------|

G|-7-7---5-7---5-7--7-7---5-12-9---7-10-7---6--|
D|-----7-----7----------7--------7--------7----|
A|---------------------------------------------| Fast
E|---------------------------------------------|

G|-----------------------------------|-----|
D|-----------------------------------|-----|
A|-----------------------------------|---5-| x4
E|-3-3-3-3-3-3-3-3-0-0-0-0-6-6-6-3-6-|-6---|

G|-----------------------------------------------------|
D|-----------------------------------------------------|
A|-5-5-----------------------5-5-------------------5---| x2
E|------5/8-8-8-5-6-6-5-3/5------5/8-8-8-5-6-5-3-5-----|



| /  slide up
| \  slide down
| h  hammer-on
| p  pull-off
| ~  vibrato
| +  harmonic
| x  Mute note
===============================================================================

http://www.myspace.com/urbantrad
Добавлено: 26.10.2013
Вам также может быть интересно:
Другие материалы по этой песне:
  • Аккорды и текст

Страница создана 26.10.2013
http://primanota.ru/urban-trad/noite-longa-chords.htm
Привет, Гость.
Предлагаем пройти революционный курс по гитаре.
Подарок от PrimaNota.Ru, забирай!