PrimaNota.ru - самый крупный в мире бесплатный архив песенных текстов, аккордов, табулатур и нот


Urban trad - Baline - бас-таба, видео

Регистрация Запомнить меня
Войти через:  Facebook Google Twitter Vk Yandex Mail.ru

Urban trad - Baline - бас-таба, видео

Печатать
Просмотров: 82
-------------------------------------------------------------------------------
                             Urban trad - Baline
-------------------------------------------------------------------------------

Tabbed By : SpectralBanshee
e-mail: 

Tuning: Standard

G|-----------------------------------------|
D|-----------------------------------------|
A|-5---5---5--5-----5------5-----5---3-----|
E|---------------6------6-----6---------6--|

G|-----6/7-----6/7-----5/6-----6/7-----6/7------9/10------5/6--------|
D|-------------------------------------------------------------------|
A|-5-x-----5-x-----5-x-----5-x-----5-x-----5-x--------5-x------8-7-5-|
E|-------------------------------------------------------------------|

G|------------6/7------------6/7------------6/7---------------|
D|-------8--------------8--------------8----------------------|
A|-----8----5---------8----5---------8----5-----3-3--1-1--3-5--|
E|-6-6------------6-6------------6-6--------------------------|

G|-----------------------------------------|
D|-----------------------------------------| x2
A|-5-5--345--5-5--345--5-5--345--5-5--345--|
E|-----------------------------------------|

G|-------------------------------------5/7\5-------------------------345-53-----------|
D|-------8\----------------8\----------------7-------8\-------------------------------|
A|-----8----5-5-345------8-----5-5-345-------------8----5-5-345--3-3------------3-5---|
E|-6-6---------------6-6-----------------------6-6--------------------------6-6-------|

G|-7-7-------7-7-------|   |-7 ------|
D|------8910------8910-|   |---8910--| x9
A|---------------------|   |---------|
E|---------------------|   |---------|


G|--------------------------------------------------------------|
D|------------------------3-2-------------------3-3--3/5-5---3--|
A|-5-5--5\3-3--3/1-1--1/3-----3--5-5--5\3-3--3/------------3----|
E|--------------------------------------------------------------|

G|----------------------------------------------------------------|
D|------------------------3-2-------------------------------------|
A|-5-5--5\3-3--3/1-1--1/3------5-5--5\3-3--3---------3--5-5-5\3---|
E|-------------------------------------------6---3----------------|

G|---------------------------------------------|
D|--------3-3-30----------------3-3-3-30-------|
A|-5---5---------034-5---5---5-----------034-5-|
E|---------------------------------------------|


G|---------------------------------------------------------------|
D|------------------------0------------------------------0-------|
A|-5-0-5-7-8\--5-0-5-7-88---034-5-5-0-5-7-8\--5-0-5-7-88---034-5-|
E|---------------------------------------------------------------|

G|--------------------------------------------------------------|
D|------------------------3-2-------------------3-3--3/5-5---3--|
A|-5-5--5\3-3--3/1-1--1/3-----3--5-5--5\3-3--3/------------3----|
E|--------------------------------------------------------------|

G|----------------------------------------------------------------|
D|------------------------3-2-------------------------------------|
A|-5-5--5\3-3--3/1-1--1/3------5-5--5\3-3--3---------3--5-5-5\3---|
E|-------------------------------------------6---3----------------|

| /  slide up
| \  slide down
| h  hammer-on
| p  pull-off
| ~  vibrato
| +  harmonic
| x  Mute note
===============================================================================

http://www.myspace.com/urbantrad
Добавлено: 17.09.2013
Вам также может быть интересно:
Другие материалы по этой песне:
  • Аккорды и текст

Страница создана 17.09.2013
http://primanota.ru/urban-trad/baline-chords.htm
Привет, Гость.
Предлагаем пройти революционный курс по гитаре.
Подарок от PrimaNota.Ru, забирай!