PrimaNota.ru - самый крупный в мире бесплатный архив песенных текстов, аккордов, табулатур и нот


Urban Dance Squad - Downer - аккорды и текст, видео

Регистрация Запомнить меня
Войти через:  Facebook Google Twitter Vk Yandex Mail.ru

Urban Dance Squad - Downer - аккорды и текст, видео

Печатать
Просмотров: 139
Downer
Urban Dance Squad
This is Urban Dance Squad's "Downer" from the Album Persona non grata
Tabbed by Martin Koellensperger
m.koelle@uibk.ac.at




Main Riff
e -----------------
h -----------------
g -----------------
D 4--54--54-54-54--
A 4--54--54-54-54--
E 2--32--32-32-32--

Fill
e -----------------
h -----------------
g -----------------
D 2--45---4-54-54--
A 2--45---4-54-54--
E 0--23---2-32-32--


     
Добавлено: 12.10.2013
Вам также может быть интересно:
Другие материалы по этой песне:
  • Аккорды и текст

Страница создана 28.06.2012
http://primanota.ru/urban-dance-squad/downer-chords.htm
Привет, Гость.
Предлагаем пройти революционный курс по гитаре.
Подарок от PrimaNota.Ru, забирай!