PrimaNota.ru - самый крупный в мире бесплатный архив песенных текстов, аккордов, табулатур и нот


Upside-down Room - Train To Nowhere - таба, видео

Регистрация Запомнить меня
Войти через:  Facebook Google Twitter Vk Yandex Mail.ru

Upside-down Room - Train To Nowhere - таба, видео

Печатать
Просмотров: 62
		   "Train To Nowhere"
written by Upside-Down Room
(c)1997 Spinning Audio Vortex
tabbed by Josh McCool
(levanqueur@aol.com)


Intro:
D|-9-9--9-9--9-9--9-9--2-----|
A|-9-9--9-9--9-9--9-9--2-----|
E|-9-9--9-9--9-9--9-9--0-----|


Verse:
D|-2----2-2--2----2-2--9-9-9--9-9-9--9-9-9--9-9-9--|
A|-2-----2-2-2-----2-2-9-9-9--9-9-9--9-9-9--9-9-9--|
E|-0---------0---------7-7-7--7-7-7--7-7-7--7-7-7--|


D|-9-9-9--9-9-9--9-9-9--9-9-9--7-7-7--7-7-7--7-7-7--|
E|-9-9-9--9-9-9--9-9-9--9-9-9--7-7-7--7-7-7--7-7-7--|
E|-7-7-7--7-7-7--7-7-7--7-7-7--5-5-5--5-5-5--5-5-5--|


D|-7-7-7--7-7-7--7-7-7--7-7-7--7-7-7-|
A|-7-7-7--7-7-7--7-7-7--7-7-7--7-7-7-|
E|-5-5-5--5-5-5--5-5-5--5-5-5--5-5-5-|


Chorus:
D|-9--9-9-9-7--7-7-7-9--9-9-9-7--7-7-7-|
A|-9--9-9-9-7--7-7-7-9--9-9-9-7--7-7-7-| (Riff One)
E|-7--7-7-7-5--5-5-5-7--7-7-7-5--5-5-5-|


(Riff One)
D|-9-9-9--9-9-9--9-9-9--9-9-9-|
A|-9-9-9--9-9-9--9-9-9--9-9-9-| x2
E|-7-7-7--7-7-7--7-7-7--7-7-7-|


Verse -> Chorus ->


Bridge:
Riff One x4


D|--12-12-12--12-12-12--12-12-12--12-12-12--12-12-12-|
A|--12-12-12--12-12-12--12-12-12--12-12-12--12-12-12-|
E|--10-10-10--10-10-10--10-10-10--10-10-10--10-10-10-|


D|--12-12-12--12-12-12--12-12-12--7-7-7--7-7-7--7-7-7-|
A|--12-12-12--12-12-12--12-12-12--7-7-7--7-7-7--7-7-7-|
E|--10-10-10--10-10-10--10-10-10--5-5-5--5-5-5--5-5-5-|


D|--7-7-7--7-7-7--7-7-7--7-7-7--7-7-7-|
A|--7-7-7--7-7-7--7-7-7--7-7-7--7-7-7-|
E|--5-5-5--5-5-5--5-5-5--5-5-5--5-5-5-|


Chorus -> Verse -> Chorus -> Verse -> Chorus x2


Outro:
Riff One


D|-5--5-5-5-5-5-5-3--3-3-3-3-3-3-9--9-9-9-9-9-9-7---|
A|-5--5-5-5-5-5-5-3--3-3-3-3-3-3-9--9-9-9-9-9-9-7---|
E|-3--3-3-3-3-3-3-1--1-1-1-1-1-1-7--7-7-7-7-7-7-5---|


D|-7-7-7-7-7-7-|
A|-7-7-7-7-7-7-|
E|-5-5-5-5-5-5-|


This song is complicated to tab in that it has a
recurring riff (Riff One). Riff One is used at the end of
the Chorus, the beginning of the Bridge, & the beginning
of the Outro (listen to the song for the timing).              
Добавлено: 16.07.2013
Другие материалы по этой песне:
  • Аккорды и текст

Страница создана 16.07.2013
http://primanota.ru/upside-down-room/train-to-nowhere-chords.htm
Привет, Гость.
Предлагаем пройти революционный курс по гитаре.
Подарок от PrimaNota.Ru, забирай!