PrimaNota.ru - самый крупный в мире бесплатный архив песенных текстов, аккордов, табулатур и нот


Upside-down Room - Some Kind Of A Thrill - таба, видео

Регистрация Запомнить меня
Войти через:  Facebook Google Twitter Vk Yandex Mail.ru

Upside-down Room - Some Kind Of A Thrill - таба, видео

Печатать
Просмотров: 58
		   "Some Kind Of A Thrill"
written by Upside-Down Room
(c)1997 Spinning Audio Vortex
tabbed by Josh McCool
(levanqueur@aol.com)


Key______________


  ^ = Palm Muted
_________________


Intro:
D|-9--9--9-9-9-9--9-9--7-7-7-7-|
A|-9--9--9-9-9-9--9-9--7-7-7-7-| x4
E|-7--7--7-7-7-7--7-7--5-5-5-5-|


Verse:
D|-9--9-9-9-9-9-9-9-9-9-9-9-7-7-7-7-9-|
A|-9--9-9-9-9-9-9-9-9-9-9-9-7-7-7-7-9-| x4
E|-7--7-7-7-7-7-7-7-7-7-7-7-5-5-5-5-7-|
      ^ ^ ^ ^ ^ ^ ^ ^
Chorus:
D|-9----9-9-9-9-9-9-9-9-7----12--12-12-12-12--12-12-12-|
A|-9----9-9-9-9-9-9-9-9-7----12--12-12-12-12--12-12-12-|
E|-7----7-7-7-7-7-7-7-7-5----10--10-10-10-10--10-10-10-|


Bridge:
D|-9--9--9-9-9-9--9-9--7-7-7-7-|
A|-9--9--9-9-9-9--9-9--7-7-7-7-| x4
E|-7--7--7-7-7-7--7-7--5-5-5-5-|


Verse -> Chorus -> Bridge x2 ->Chorus ->
Bridge -> Verse -> Chorus -> Bridge
(listen to the song for the timing)     
Добавлено: 26.08.2013
Вам также может быть интересно:
Другие материалы по этой песне:
  • Аккорды и текст

Страница создана 26.08.2013
http://primanota.ru/upside-down-room/some-kind-of-a-thrill-chords.htm
Привет, Гость.
Предлагаем пройти революционный курс по гитаре.
Подарок от PrimaNota.Ru, забирай!