PrimaNota.ru - самый крупный в мире бесплатный архив песенных текстов, аккордов, табулатур и нот


Upside-down Room - Lonely - таба, видео

Регистрация Запомнить меня
Войти через:  Facebook Google Twitter Vk Yandex Mail.ru

Upside-down Room - Lonely - таба, видео

Печатать
Просмотров: 75
		   "Lonely"
written by Upside-Down Room
(c)1997 Spinning Audio Vortex
tabbed by Josh McCool
(levanqueur@aol.com)


Intro:
D|-12--12-12-12-12-12-12-9--9-9-9-9-9-9-10-10-10-10-10-|
A|-12--12-12-12-12-12-12-9--9-9-9-9-9-9-10-10-10-10-10-|
E|-10--10-10-10-10-10-10-7--7-7-7-7-7-7--8--8--8--8--8-|


D|-10-10--7-7-7-7-7-7-|
A|-10-10--7-7-7-7-7-7-| x4
E|--8--8--5-5-5-5-5-5-|


Verse:
D|-12--12-12-12-12-12-12-9--9-9-9-9-9-9-10-10-10-10-10-|
A|-12--12-12-12-12-12-12-9--9-9-9-9-9-9-10-10-10-10-10-|
E|-10--10-10-10-10-10-10-7--7-7-7-7-7-7--8--8--8--8--8-|


D|-10-10--7-7-7-7-7-7-|
A|-10-10--7-7-7-7-7-7-| x4
E|--8--8--5-5-5-5-5-5-|


Chorus:
D|-12----9----7-|
A|-12----9----7-|
E|-10----7----5-|


Bridge:
D|-12--12-12-12-12-12-12-9--9-9-9-9-9-9-10-10-10-10-10-|
A|-12--12-12-12-12-12-12-9--9-9-9-9-9-9-10-10-10-10-10-|
E|-10--10-10-10-10-10-10-7--7-7-7-7-7-7--8--8--8--8--8-|


D|-10-10--7-7-7-7-7-7-|
A|-10-10--7-7-7-7-7-7-| x4
E|--8--8--5-5-5-5-5-5-|
                                             
Verse -> Chorus -> Bridge -> Verse -> Chorus -> 


Outro:
D|-12--12-12-12-12-12-12-9--9-9-9-9-9-9-10-10-10-10-10-|
A|-12--12-12-12-12-12-12-9--9-9-9-9-9-9-10-10-10-10-10-|
E|-10--10-10-10-10-10-10-7--7-7-7-7-7-7--8--8--8--8--8-|


D|-10-10-7-|
A|-10-10-7-|
E|--8--8-5-|
(listen to the song for the timing)              
Добавлено: 01.12.2013
Другие материалы по этой песне:
  • Аккорды и текст

Страница создана 01.12.2013
http://primanota.ru/upside-down-room/lonely-chords.htm
Привет, Гость.
Предлагаем пройти революционный курс по гитаре.
Подарок от PrimaNota.Ru, забирай!