PrimaNota.ru - самый крупный в мире бесплатный архив песенных текстов, аккордов, табулатур и нот


Upside-down Room - Letter To Amy - таба, видео

Регистрация Запомнить меня
Войти через:  Facebook Google Twitter Vk Yandex Mail.ru

Upside-down Room - Letter To Amy - таба, видео

Печатать
Просмотров: 85
Уроки эстрадного вокала в Санкт-Петербурге
		   "Letter To Amy"
written by Upside-Down Room
(c)1995 Spinning Audio Vortex
tabbed by Joshua McCool
(levanqueur@aol.com)


Intro:
D||-2-2--2-2-2/5-5-|
A||-2-2--2-2-2/5-5-| x8
E||-0-0--0-0-0/3-3-|


Verse:
D||-2-2--2-2-2/5-5-|
A||-2-2--2-2-2/5-5-| x8
E||-0-0--0-0-0/3-3-|
     (palm muted)


Chorus:
D||-7-7-x-7-7--7-7-7-7-7-7----7-7--|
A||-7-7-x-7-7--7-7-7-7-7-7-----7-7-| x4
E||-5-5-x-5-5--7-7-7-7-7-7---------|   


Bridge:
D||-2-2--2-2-2/5-5-|
A||-2-2--2-2-2/5-5-| x12
E||-0-0--0-0-0/3-3-|
                     
Verse -> Chorus -> Bridge -> Verse -> Chorus


Bridge #2:
D||-2-2--2-2-2/5-5-|
A||-2-2--2-2-2/5-5-| x15
E||-0-0--0-0-0/3-3-|


Letter To Amy:
D||-9-9-9-9-9-9-9-9-9-9-9-9-9-7-7-7-|
A||-9-9-9-9-9-9-9-9-9-9-9-9-9-7-7-7-| x4
E||-7-7-7-7-7-7-7-7-7-7-7-7-7-5-5-5-|
(play the first three times palm muted)


Outro:
D||-2-2--2-2-2/5-5-|       |-2-|
A||-2-2--2-2-2/5-5-| x20   |-2-|
E||-0-0--0-0-0/3-3-|       |-0-|


Listen to the song for the timing
Send changes to levanqueur@aol.com     
Добавлено: 24.07.2013
Другие материалы по этой песне:
  • Аккорды и текст

Страница создана 24.07.2013
http://primanota.ru/upside-down-room/letter-to-amy-chords.htm
Привет, Гость.
Предлагаем пройти революционный курс по гитаре.
Подарок от PrimaNota.Ru, забирай!