PrimaNota.ru - самый крупный в мире бесплатный архив песенных текстов, аккордов, табулатур и нот


Upside-down Room - Killing Time - таба, видео

Регистрация Запомнить меня
Войти через:  Facebook Google Twitter Vk Yandex Mail.ru

Upside-down Room - Killing Time - таба, видео

Печатать
Просмотров: 57
Уроки эстрадного вокала в Санкт-Петербурге
		   "Killing Time"
written by Upside-Down Room
(c)1997 Spinning Audio Vortex
tabbed by Josh McCool
(levanqueur@aol.com)


Intro:
D|-9--9-9-9-9-9-9-12--12-12-12-12-12-10--------|
A|-9--9-9-9-9-9-9-12--12-12-12-12-12-10--------| x2
E|-7--7-7-7-7-7-7-10--10-10-10-10-10--8--------|


Verse:
D|-----9-9-9-9-9-9-12-12-12-12-12-12-10-10-10-10-10-10-|
A|-----9-9-9-9-9-9-12-12-12-12-12-12-10-10-10-10-10-10-|
E|-----7-7-7-7-7-7-10-10-10-10-10-10--8--8--8--8--8--8-|


D|-12-12-12-10-10-10-|
A|-12-12-12-10-10-10-| x4
E|-10-10-10--8--8--8-|


Chorus:
D|-9--9-9-9-9-9-12--12-12-12-12-12-10--10-10-10-10-10-|
A|-9--9-9-9-9-9-12--12-12-12-12-12-10--10-10-10-10-10-|
E|-7--7-7-7-7-7-10--10-10-10-10-10--8---8--8--8--8--8-|


D|-12-12-12-10-10-10-|
A|-12-12-12-10-10-10-| x2
E|-10-10-10--8--8--8-|


Bridge Intro:
D|-9----9-9-9-9-9-9-10----10-10-10-10-10-10-9-|
A|-9----9-9-9-9-9-9-10----10-10-10-10-10-10-9-|
E|-7----7-7-7-7-7-7--8-----8--8--8--8--8--8-7-|


Bridge:
D|-9--9-9-9-9-9-9-9--9-9-9-9-9-9-12--12-12-12-12-12-12-|
A|-9--9-9-9-9-9-9-9--9-9-9-9-9-9-12--12-12-12-12-12-12-|
E|-7--7-7-7-7-7-7-7--7-7-7-7-7-7-10--10-10-10-10-10-10-|


D|-10--10-10-10-10-10-10-|
A|-10--10-10-10-10-10-10-|
E|--8---8--8--8--8--8--8-|


Intro -> Verse -> Chorus -> Bridge Intro -> Bridge


Outro:
D|----9--9-9-9-9-9-9-9--9-9-9-9-9-9-12--12-12-12-12-12-12-|
A|----9--9-9-9-9-9-9-9--9-9-9-9-9-9-12--12-12-12-12-12-12-|
E|----7--7-7-7-7-7-7-7--7-7-7-7-7-7-10--10-10-10-10-10-10-|


D|-10--10-10-10-10-10-10-9-|
A|-10--10-10-10-10-10-10-9-|
E|--8---8--8--8--8--8--8-7-|
(listen to the song for the timing)     
Добавлено: 25.06.2013
Другие материалы по этой песне:
  • Аккорды и текст

Страница создана 25.06.2013
http://primanota.ru/upside-down-room/killing-time-chords.htm
Привет, Гость.
Предлагаем пройти революционный курс по гитаре.
Подарок от PrimaNota.Ru, забирай!