PrimaNota.ru - самый крупный в мире бесплатный архив песенных текстов, аккордов, табулатур и нот


Upside-down Room - Johnnys Addiction - таба, видео

Регистрация Запомнить меня
Войти через:  Facebook Google Twitter Vk Yandex Mail.ru

Upside-down Room - Johnnys Addiction - таба, видео

Печатать
Просмотров: 59
		        "Johnny's Addiction"
written by Upside-Down Room
(c)1997 Spinning Audio Vortex
   tabbed by Joshua McCool
     (levanqueur@aol.com)


Intro:
D||-7-7---------|
A||-7-7---------|
E||-5-5---------|


Verse:
D||-7-5-7-5-7-5-7-5----7-5-7-5-7-5-7-5-7-5-|
A||-7-5-7-5-7-5-7-5----7-5-7-5-7-5-7-5-7-5-|
E||-5-3-5-3-5-3-5-3----5-3-5-3-5-3-5-3-5-3-|


D||-7-5-7-5-7-5-7-5-7-5-7-5-7-5-|
A||-7-5-7-5-7-5-7-5-7-5-7-5-7-5-|
E||-5-3-5-3-5-3-5-3-5-3-5-3-5-3-|


Chorus:
D||-9-9-9-9-12-12-12-12-11-11-11-11-11-11-11-11-|
A||-9-9-9-9-12-12-12-12-11-11-11-11-11-11-11-11-|
E||-7-7-7-7-10-10-10-10--9--9--9--9--9--9--9--9-|


Verse -> Chorus


Bridge:
D||-7-5-| 
A||-7-5-| X8
E||-5-3-|


Verse -> Chorus


Outro:
D||-7-5-7-5-7-5-5-5----7-5-7-5-7-5-7-5-5-5-5-5----2-|
A||-7-5-7-5-7-5-5-5----7-5-7-5-7-5-7-5-5-5-5-5----2-|
E||-5-3-5-3-5-3-3-3----5-3-5-3-5-3-5-3-3-3-3-3----0-|


Send corrections to levanqueur@aol.com     
Добавлено: 15.06.2013
Другие материалы по этой песне:
  • Аккорды и текст

Страница создана 15.06.2013
http://primanota.ru/upside-down-room/johnnys-addiction-chords.htm
Привет, Гость.
Предлагаем пройти революционный курс по гитаре.
Подарок от PrimaNota.Ru, забирай!