PrimaNota.ru - самый крупный в мире бесплатный архив песенных текстов, аккордов, табулатур и нот


Upon A Burning Body - The World Is My Enemy Now - таба, видео

Регистрация Запомнить меня
Войти через:  Facebook Google Twitter Vk Yandex Mail.ru

Upon A Burning Body - The World Is My Enemy Now - таба, видео

Печатать
Просмотров: 211
Уроки эстрадного вокала в Санкт-Петербурге
|--------------------------------------------------------------------------------------------------------|
|                              UPON A BURNING BODY - THE WORLD IS MY ENEMY NOW                           |
|                                   Album: The World is My Enemy Now (2014)                              |
|--------------------------------------------------------------------------------------------------------|

                   If you have questions or corrections feel free to send me a message:
                                http://profile.ultimate-guitar.com/godspeedy/
                                    https://www.facebook.com/Godspeedy14
                     
                 Also check out my Youtube channel: http://www.youtube.com/user/Godspeedy14

                                        Tuning: 7 strings AEADGBE
                                                    
*********************************************GUITAR NOTATIONS*********************************************
*                                                                                                        *
*                                      | *   palm mute           |                                       *
*                                      | p   pull-off            |                                       *
*                                      | ~   vibrato             |                                       *
*                                      | +   pinch harmonics     |                                       *
*                                      | b   bend                |                                       *
*                                      | r   release             |                                       *
*                                      | br  bend release        |                                       *
*                                      | П   downstroke          |                                       *
*                                      | V   upstroke            |                                       *
*                                                                                                        *
**********************************************************************************************************

|--------------------------------------------------------------------------------------------------------|
|                                          INTRO (00:00-00:36)                                           |
|--------------------------------------------------------------------------------------------------------|

I. Guitars 1 and 2 (w/ dist)

   П     П  П  П  П  П  П      П  П  П  П  П  П  П   П     П  П  П  П  П  П      П  П  П  П  П  П  П
E|------------------------|------------------------|------------------------|------------------------|
B|------------------------|------------------------|------------------------|------------------------|
G|------------------------|------------------------|------------------------|------------------------|
D|------------------------|------------------------|------------------------|------------------------|
A|-5-p4-----4-----3-----4-|p3-----3-----2-----1----|-5-p4-----4-----3-----4-|p3-----3-----2-----1----|
E|-5-p4--0--4--0--3--0--4-|p3--0--3--0--2--0--1--0-|-5-p4--0--4--0--3--0--4-|p3--0--3--0--2--0--1--0-|
A|-5-p4--0--4--0--3--0--4-|p3--0--3--0--2--0--1--0-|-5-p4--0--4--0--3--0--4-|p3--0--3--0--2--0--1--0-|
         *     *     *         *     *     *     *         *     *     *         *     *     *     *

   П     П  П  П  П  П  П      П  П  П  П  П  П  П   П     П  П  П  П  П  П      П  П  П  П  П  П
E|------------------------|------------------------|------------------------|------------------------|
B|------------------------|------------------------|------------------------|------------------------|
G|------------------------|------------------------|------------------------|------------------------|
D|------------------------|------------------------|------------------------|------------------------|
A|-5-p4-----4-----3-----4-|p3-----3-----2-----1----|-5-p4-----4-----3-----4-|p3-----3----------------|
E|-5-p4--0--4--0--3--0--4-|p3--0--3--0--2--0--1--0-|-5-p4--0--4--0--3--0--4-|p3--0--3--0--0--0-------|
A|-5-p4--0--4--0--3--0--4-|p3--0--3--0--2--0--1--0-|-5-p4--0--4--0--3--0--4-|p3--0--3--0--0--0--13~~~|
         *     *     *         *     *     *     *         *     *     *         *     *  *  * 

   П     П  П  П  П  П  П      П  П  П  П  П  П  П   П     П  П  П  П  П  П      П  П  П  П  П  П
E|------------------------|------------------------|------------------------|------------------------|
B|------------------------|------------------------|------------------------|------------------------|
G|------------------------|------------------------|------------------------|------------------------|
D|------------------------|------------------------|------------------------|------------------------|
A|-5-p4-----4-----3-----4-|p3-----3-----2-----1----|-5-p4-----4-----3-----4-|p3-----3-----2----------|
E|-5-p4--0--4--0--3--0--4-|p3--0--3--0--2--0--1--0-|-5-p4--0--4--0--3--0--4-|p3--0--3--0--2--0-------|
A|-5-p4--0--4--0--3--0--4-|p3--0--3--0--2--0--1--0-|-5-p4--0--4--0--3--0--4-|p3--0--3--0--2--0--3~~~~|
         *     *     *         *     *     *     *         *     *     *         *     *     *  +
 
   П     П  П  П  П  П  П      П  П  П  П  П  П  П   П     П  П  П  П  П  П      П  П  П  П  П  П
E|------------------------|------------------------|------------------------|------------------------|
B|------------------------|------------------------|------------------------|------------------------|
G|------------------------|------------------------|------------------------|------------------------|
D|------------------------|------------------------|------------------------|------------------------|
A|-5-p4-----4-----3-----4-|p3-----3-----2-----1----|-5-p4-----4-----3-----4-|p3-----3----------------|
E|-5-p4--0--4--0--3--0--4-|p3--0--3--0--2--0--1--0-|-5-p4--0--4--0--3--0--4-|p3--0--3--0--0--0-------|
A|-5-p4--0--4--0--3--0--4-|p3--0--3--0--2--0--1--0-|-5-p4--0--4--0--3--0--4-|p3--0--3--0--0--0--13~~~|
         *     *     *         *     *     *     *         *     *     *         *     *  *  * 

II. Guitar 1 (w/ dist)

   П  П V П  П  П  П  П  П   П  П V П  П  П  П  П  П  
E|-------------------------|-------------------------|
B|-------------------------|-------------------------|
G|-------------------------|-------------------------|
D|-------------------------|-------------------------|
A|-------------------------|-------------------------|
E|-5-----------------------|-6-----------------------|
A|----0-0-0--0--0--0--0--0-|----0-0-0--0--0--0--0--0-|
      * * *     *     *  *      * * *     *     *  *

   П  П V П  П  П  П  П  П   П V П V П V П V П V П V П V П V 
E|-------------------------|---------------------------------|
B|-------------------------|---------------------------------|
G|-------------------------|---------------------------------|
D|-------------------------|---------------------------------|
A|-------------------------|-8-7-6-5-------------------------|
E|-9-----------------------|-----------------8-7-6-5---------|
A|----0-0-0--0--0--0--0--0-|---------8-7-6-5---------8-7-6-5-|
      * * *     *     *  *   * * * * * * * * * * * * * * * *

    Guitar 2 (w/ dist)

   П               П             П V П V П V П V П V П V П V П V 
E|-------|-------|-------------|---------------------------------|
B|-------|-------|-------------|---------------------------------|
G|-------|-------|-------------|---------------------------------|
D|-------|-------|-------------|---------------------------------|
A|-0-----|-------|-------------|-8-7-6-5-------------------------|
E|-0-----|-------|-------------|-----------------8-7-6-5---------|
A|-0-----|-------|-0-----------|---------8-7-6-5---------8-7-6-5-|
                   *             * * * * * * * * * * * * * * * *

|--------------------------------------------------------------------------------------------------------|
|                                          VERSE (00:36-00:46)                                           |
|--------------------------------------------------------------------------------------------------------|

Guitars 1 and 2 (w/ dist)

   П  П V П  П  П  П  П  П   П  П V П  П  П  П  П  П ---------------| 
E|-------------------------|-------------------------|              |
B|-------------------------|-------------------------|              |
G|-------------------------|-------------------------|              |
D|-------------------------|-------------------------|              |
A|-------------------------|-------------------------|              |
E|-5-----------------------|-6-----------------------|              |
A|----0-0-0--0--0--0--0--0-|----0-0-0--0--0--0--0--0-|              |
      * * *     *     *  *      * * *     *     *  *                |
                                                                    | x2
   П  П V П  П  П  П  П  П   П V П V П V П V П V П V П V П V        |
E|-------------------------|---------------------------------|      |
B|-------------------------|---------------------------------|      |
G|-------------------------|---------------------------------|      |
D|-------------------------|---------------------------------|      |
A|-------------------------|-8-7-6-5-------------------------|      |
E|-9-----------------------|-----------------8-7-6-5---------|      |
A|----0-0-0--0--0--0--0--0-|---------8-7-6-5---------8-7-6-5-|      |
      * * *     *     *  *   * * * * * * * * * * * * * * * * -------|
                                     
|--------------------------------------------------------------------------------------------------------|
|                                        PRE-CHORUS (00:46-00:57)                                        |
|--------------------------------------------------------------------------------------------------------|

Guitar 1 (w/ dist)

   П  П V П  П  П  П  П  П   П  П V П  П  П  П  П  П
E|-------------------------|-------------------------|
B|-------------------------|-------------------------|
G|-------------------------|-------------------------|
D|-------------------------|-------------------------|
A|-------------------------|-------------------------|
E|-5---------------------5-|-6---------------------8-|
A|----0-0-0--0--0--0--0----|----0-0-0--0--0--0--0----|
      * * *  *  *  *  *         * * *  *  *  *  * 

   П  П V П  П  П  П  П  П   П V П V П V П V П V П V П V П V 
E|-------------------------|---------------------------------|
B|-------------------------|---------------------------------|
G|-------------------------|---------------------------------|
D|-------------------------|---------------------------------|
A|-------------------------|-4-4-4-4-------------------------|
E|-9-----------------------|---------1-1-1-1-4-4-4-4---------|
A|----0-0-0--0--0--0--0--0-|-------------------------3-3-3-3-|
      * * *  *  *  *  *  *   * * * * * * * * * * * * * * * *

   П  П V П  П  П  П  П  П   П  П V П  П  П  П  П  П
E|-------------------------|-------------------------|
B|-------------------------|-------------------------|
G|-------------------------|-------------------------|
D|-------------------------|-------------------------|
A|-------------------------|-------------------------|
E|-5---------------------5-|-6---------------------8-|
A|----0-0-0--0--0--0--0----|----0-0-0--0--0--0--0----|
      * * *  *  *  *  *         * * *  *  *  *  * 

   П  П V П  П  П  П  П  П   П V П V П V П V П V П V П V П V 
E|-------------------------|---------------------------------|
B|-------------------------|---------------------------------|
G|-------------------------|---------------------------------|
D|-------------------------|---------------------------------|
A|-------------------------|-4-4-4-4-------------------------|
E|-9-----------------------|---------1-1-1-1-4-4-4-4---------|
A|----0-0-0--0--0--0--0--0-|-------------------------3-3-3-3-|
      * * *  *  *  *  *  *   * * * * * * * * * * * * 

Guitar 2 (w/ dist)

   П  П V П  П  П  П  П  П   П  П V П  П  П  П  П  П
E|-------------------------|--------------------------|
B|-------------------------|--------------------------|
G|-------------------------|--------------------------|
D|-------------------------|--------------------------|
A|-------------------------|--------------------------|
E|-8---------------------8-|-9---------------------11-|
A|----0-0-0--0--0--0--0----|----0-0-0--0--0--0--0-----|
      * * *  *  *  *  *         * * *  *  *  *  * 

   П  П V П  П  П  П  П  П   П V П V П V П V П V П V П V П V 
E|-------------------------|---------------------------------|
B|-------------------------|---------------------------------|
G|-------------------------|---------------------------------|
D|-------------------------|---------------------------------|
A|-------------------------|-4-4-4-4-------------------------|
E|-12----------------------|---------1-1-1-1-4-4-4-4---------|
A|----0-0-0--0--0--0--0--0-|-------------------------3-3-3-3-|
      * * *  *  *  *  *  *   * * * * * * * * * * * * * * * *

   П  П V П  П  П  П  П  П   П  П V П  П  П  П  П  П
E|-------------------------|--------------------------|
B|-------------------------|--------------------------|
G|-------------------------|--------------------------|
D|-------------------------|--------------------------|
A|-------------------------|--------------------------|
E|-8---------------------8-|-9---------------------11-|
A|----0-0-0--0--0--0--0----|----0-0-0--0--0--0--0-----|
      * * *  *  *  *  *         * * *  *  *  *  * 

   П  П V П  П  П  П  П  П   П V П V П V П V П V П V П V П V 
E|-------------------------|---------------------------------|
B|-------------------------|---------------------------------|
G|-------------------------|---------------------------------|
D|-------------------------|---------------------------------|
A|-------------------------|-4-4-4-4-------------------------|
E|-12----------------------|---------1-1-1-1-4-4-4-4---------|
A|----0-0-0--0--0--0--0--0-|-------------------------3-3-3-3-|
      * * *  *  *  *  *  *   * * * * * * * * * * * * 

|--------------------------------------------------------------------------------------------------------|
|                                          CHORUS (00:57-01:18)                                          |
|--------------------------------------------------------------------------------------------------------|

I. Guitars 1 and 2 (w/ dist)

   П V П V П V П V П V П V П V П V   П V П V П V П V П V П V П V П V 
E|---------------------------------|---------------------------------|
B|---------------------------------|---------------------------------|
G|---------------------------------|---------------------------------|
D|---------------------------------|---------------------------------|
A|-------------4-4-------------4-4-|-------------4-4-3-3-3-3---------|
E|---------------------------------|-------------------------6-6-6-6-|
A|-3-3-3-3-3-3-----3-3-3-3-3-3-----|-3-3-3-3-3-3---------------------|\
                                                                       \
                                                                        x2
   П V П V П V П V П V П V П V П V   П V П V П V П V П V П V П V П V   /
E|---------------------------------|---------------------------------|/
B|---------------------------------|---------------------------------|
G|---------------------------------|---------------------------------|
D|---------------------------------|---------------------------------|
A|-------------4-4-------------4-4-|-----------------4-4-4-4---------|
E|---------------------------------|-------------1-1-----------------|
A|-3-3-3-3-3-3-----3-3-3-3-3-3-----|-3-3-3-3-3-3-------------4-4-4-4-|

II. Guitars 1 and 2 (w/ dist)

   П V П V П V П V П V П V П V П V   П V П V П V П V П V П V П V П V 
E|---------------------------------|---------------------------------|
B|---------------------------------|---------------------------------|
G|---------------------------------|---------------------------------|
D|---------------------------------|---------------------------------|
A|-------------4-4-------------4-4-|-------------4-4-3-3-3-3---------|
E|---------------------------------|-------------------------6-6-6-6-|
A|-3-3-3-3-3-3-----3-3-3-3-3-3-----|-3-3-3-3-3-3---------------------|
                                                                    
   П V П V П V П V П V П V П V П V   П V П V П V П V П V П V П V П V  
E|---------------------------------|---------------------------------|
B|---------------------------------|---------------------------------|
G|---------------------------------|---------------------------------|
D|---------------------------------|---------------------------------|
A|-------------4-4-------------4-4-|-----------------4-4-4-4---------|
E|---------------------------------|-------------1-1-----------------|
A|-3-3-3-3-3-3-----3-3-3-3-3-3-----|-3-3-3-3-3-3-------------4-4-4-4-|

   П V П V П V П V П V П V П V П V   П V П V П V П V П V П V П V П V 
E|---------------------------------|---------------------------------|
B|---------------------------------|---------------------------------|
G|---------------------------------|---------------------------------|
D|---------------------------------|---------------------------------|
A|-------------4-4-------------4-4-|-------------4-4-3-3-3-3---------|
E|---------------------------------|-------------------------6-6-6-6-|
A|-3-3-3-3-3-3-----3-3-3-3-3-3-----|-3-3-3-3-3-3---------------------|
                                                                    
   П V П V П V П V П V П V П V П V   П    П
E|---------------------------------|------------|
B|---------------------------------|------------|
G|---------------------------------|------------|
D|---------------------------------|------------|
A|-------------4-4-------------4-4-|------------|
E|---------------------------------|------3~~~~~|
A|-3-3-3-3-3-3-----3-3-3-3-3-3-----|-4----------|

Guitar 3 (w/ dist)
   П V П V П V П V П V П V П V П V   П V П V П V П V П V П V П V П V
E|---------------------------------|---------------------------------|
B|---------------------------------|---------------------------------|
G|-5-5-5-5-5-5-6-6-5-5-5-5-5-5-6-6-|-5-5-5-5-5-5-6-6-5-5-5-5---------|
D|---------------------------------|-------------------------8-8-8-8-|
A|---------------------------------|---------------------------------|
E|---------------------------------|---------------------------------|
A|---------------------------------|---------------------------------|

   П V П V П V П V П V П V П V П V   П V П V П V П  V  П V П V П V П V
E|---------------------------------|-----------------------------------|
B|---------------------------------|-----------------------------------|
G|-5-5-5-5-5-5-6-6-5-5-5-5-5-5-6-6-|-5-5-5-5-5-5-10-10-9-9-9-9-6-6-6-6-|
D|---------------------------------|-----------------------------------|
A|---------------------------------|-----------------------------------|
E|---------------------------------|-----------------------------------|
A|---------------------------------|-----------------------------------|

   П V П V П V П V П V П V П V П V   П V П V П V П V П V П V П V П V
E|---------------------------------|---------------------------------|
B|---------------------------------|---------------------------------|
G|-5-5-5-5-5-5-6-6-5-5-5-5-5-5-6-6-|-5-5-5-5-5-5-6-6-5-5-5-5---------|
D|---------------------------------|-------------------------8-8-8-8-|
A|---------------------------------|---------------------------------|
E|---------------------------------|---------------------------------|
A|---------------------------------|---------------------------------|

   П V П V П V П V П V П V П V П V
E|---------------------------------|---------------------------------|
B|---------------------------------|---------------------------------|
G|-5-5-5-5-5-5-6-6-5-5-5-5-5-5-6-6-|---------------------------------|
D|---------------------------------|---------------------------------|
A|---------------------------------|---------------------------------|
E|---------------------------------|---------------------------------|
A|---------------------------------|---------------------------------|

|--------------------------------------------------------------------------------------------------------|
|                                         VERSE 2 (01:18-01:29)                                          |
|--------------------------------------------------------------------------------------------------------|
                                              same as VERSE
|--------------------------------------------------------------------------------------------------------|
|                                       PRE-CHORUS 2 (01:29-01:42)                                       |
|--------------------------------------------------------------------------------------------------------|

Guitar 1 (w/ dist)

   П  П V П  П  П  П  П  П   П  П V П  П  П  П  П  П
E|-------------------------|-------------------------|
B|-------------------------|-------------------------|
G|-------------------------|-------------------------|
D|-------------------------|-------------------------|
A|-------------------------|-------------------------|
E|-5---------------------5-|-6---------------------8-|
A|----0-0-0--0--0--0--0----|----0-0-0--0--0--0--0----|
      * * *  *  *  *  *         * * *  *  *  *  * 

   П  П V П  П  П  П  П  П   П V П V П V П V П V П V П V П V 
E|-------------------------|---------------------------------|
B|-------------------------|---------------------------------|
G|-------------------------|---------------------------------|
D|-------------------------|---------------------------------|
A|-------------------------|-4-4-4-4-------------------------|
E|-9-----------------------|---------1-1-1-1-4-4-4-4---------|
A|----0-0-0--0--0--0--0--0-|-------------------------3-3-3-3-|
      * * *  *  *  *  *  *   * * * * * * * * * * * * * * * *

   П  П V П  П  П  П  П  П   П  П V П  П  П  П  П  П
E|-------------------------|-------------------------|
B|-------------------------|-------------------------|
G|-------------------------|-------------------------|
D|-------------------------|-------------------------|
A|-------------------------|-------------------------|
E|-5---------------------5-|-6---------------------8-|
A|----0-0-0--0--0--0--0----|----0-0-0--0--0--0--0----|
      * * *  *  *  *  *         * * *  *  *  *  * 

   П  П V П  П  П  П  П  П   П   П   П   П    П
E|-------------------------|----------------|--------|
B|-------------------------|----------------|--------|
G|-------------------------|----------------|--------|
D|-------------------------|----------------|--------|
A|-------------------------|-7---3---4---1--|-0------|
E|-9-----------------------|-7---3---4---1--|-0------|
A|----0-0-0--0--0--0--0--0-|-7---3---4---1--|-0------|
      * * *  *  *  *  *  *  

Guitar 2 (w/ dist)

   П  П V П  П  П  П  П  П   П  П V П  П  П  П  П  П
E|-------------------------|--------------------------|
B|-------------------------|--------------------------|
G|-------------------------|--------------------------|
D|-------------------------|--------------------------|
A|-------------------------|--------------------------|
E|-8---------------------8-|-9---------------------11-|
A|----0-0-0--0--0--0--0----|----0-0-0--0--0--0--0-----|
      * * *  *  *  *  *         * * *  *  *  *  * 

   П  П V П  П  П  П  П  П   П V П V П V П V П V П V П V П V 
E|-------------------------|---------------------------------|
B|-------------------------|---------------------------------|
G|-------------------------|---------------------------------|
D|-------------------------|---------------------------------|
A|-------------------------|-4-4-4-4-------------------------|
E|-12----------------------|---------1-1-1-1-4-4-4-4---------|
A|----0-0-0--0--0--0--0--0-|-------------------------3-3-3-3-|
      * * *  *  *  *  *  *   * * * * * * * * * * * * * * * *

   П  П V П  П  П  П  П  П   П  П V П  П  П  П  П  П
E|-------------------------|--------------------------|
B|-------------------------|--------------------------|
G|-------------------------|--------------------------|
D|-------------------------|--------------------------|
A|-------------------------|--------------------------|
E|-8---------------------8-|-9---------------------11-|
A|----0-0-0--0--0--0--0----|----0-0-0--0--0--0--0-----|
      * * *  *  *  *  *         * * *  *  *  *  * 

   П  П V П  П  П  П  П  П   П   П   П   П    П
E|-------------------------|----------------|--------|
B|-------------------------|----------------|--------|
G|-------------------------|----------------|--------|
D|-------------------------|----------------|--------|
A|-------------------------|-7---3---4---1--|-0------|
E|-12----------------------|-7---3---4---1--|-0------|
A|----0-0-0--0--0--0--0--0-|-7---3---4---1--|-0------|
      * * *  *  *  *  *  *  

|--------------------------------------------------------------------------------------------------------|
|                                          BRIDGE (01:42-02:02)                                          |
|--------------------------------------------------------------------------------------------------------|

Guitars 1 and 2 (w/ dist)

   П     П  П  П  П  П  П      П  П  П  П  П  П  П   П     П  П  П  П  П  П      П  П  П  П  П  П  П
E|------------------------|------------------------|------------------------|------------------------|
B|------------------------|------------------------|------------------------|------------------------|
G|------------------------|------------------------|------------------------|------------------------|
D|------------------------|------------------------|------------------------|------------------------|
A|-5-p4-----4-----3-----4-|p3-----3-----2-----1----|-5-p4-----4-----3-----4-|p3-----3-----2-----1----|
E|-5-p4--0--4--0--3--0--4-|p3--0--3--0--2--0--1--0-|-5-p4--0--4--0--3--0--4-|p3--0--3--0--2--0--1--0-|
A|-5-p4--0--4--0--3--0--4-|p3--0--3--0--2--0--1--0-|-5-p4--0--4--0--3--0--4-|p3--0--3--0--2--0--1--0-|
         *     *     *         *     *     *     *         *     *     *         *     *     *     *

   П     П  П  П  П  П  П      П  П  П  П  П  П  П   П     П  П  П  П  П  П      П  П  П  П  П  П
E|------------------------|------------------------|------------------------|------------------------|
B|------------------------|------------------------|------------------------|------------------------|
G|------------------------|------------------------|------------------------|------------------------|
D|------------------------|------------------------|------------------------|------------------------|
A|-5-p4-----4-----3-----4-|p3-----3-----2-----1----|-5-p4-----4-----3-----4-|p3-----3----------------|
E|-5-p4--0--4--0--3--0--4-|p3--0--3--0--2--0--1--0-|-5-p4--0--4--0--3--0--4-|p3--0--3--0--0--0-------|
A|-5-p4--0--4--0--3--0--4-|p3--0--3--0--2--0--1--0-|-5-p4--0--4--0--3--0--4-|p3--0--3--0--0--0--13~~~|
         *     *     *         *     *     *     *         *     *     *         *     *  *  * 

   П     П  П  П  П  П  П      П  П  П  П  П  П  П   П     П  П  П  П  П  П      П  П  П  П  П  П
E|------------------------|------------------------|------------------------|------------------------|
B|------------------------|------------------------|------------------------|------------------------|
G|------------------------|------------------------|------------------------|------------------------|
D|------------------------|------------------------|------------------------|------------------------|
A|-5-p4-----4-----3-----4-|p3-----3-----2-----1----|-5-p4-----4-----3-----4-|p3-----3-----2----------|
E|-5-p4--0--4--0--3--0--4-|p3--0--3--0--2--0--1--0-|-5-p4--0--4--0--3--0--4-|p3--0--3--0--2--0-------|
A|-5-p4--0--4--0--3--0--4-|p3--0--3--0--2--0--1--0-|-5-p4--0--4--0--3--0--4-|p3--0--3--0--2--0--3~~~~|
         *     *     *         *     *     *     *         *     *     *         *     *     *  +
 
   П     П  П  П  П  П  П      П  П  П  П  П  П  П   П     П  П  П  П  П  П      П  П  П  П  П  П  П
E|------------------------|------------------------|------------------------|------------------------|
B|------------------------|------------------------|------------------------|------------------------|
G|------------------------|------------------------|------------------------|------------------------|
D|------------------------|------------------------|------------------------|------------------------|
A|-5-p4-----4-----3-----4-|p3-----3-----2-----1----|-5-p4-----4-----3-----4-|p3-----3-----2-----1----|
E|-5-p4--0--4--0--3--0--4-|p3--0--3--0--2--0--1--0-|-5-p4--0--4--0--3--0--4-|p3--0--3--0--2--0--1--0-|
A|-5-p4--0--4--0--3--0--4-|p3--0--3--0--2--0--1--0-|-5-p4--0--4--0--3--0--4-|p3--0--3--0--2--0--1--0-|
         *     *     *         *     *     *     *         *     *     *         *     *     *     *
|--------------------------------------------------------------------------------------------------------|
|                                         CHORUS 2 (02:02-02:24)                                         |
|--------------------------------------------------------------------------------------------------------|
                                              same as CHORUS
|--------------------------------------------------------------------------------------------------------|
|                                          OUTRO (02:24-03:09)                                           |
|--------------------------------------------------------------------------------------------------------|

I. Guitar 1 (w/ dist)

   П  V  П  V  П  V  П  V   П  V  П  V  П  V  П  V   П  V  П  V  П  V  П  V   П  V  П  V  П  V  П  V  
E|------------------------|------------------------|------------------------|-------------------------|
B|------------------------|------------------------|------------------------|-------------------------|
G|-5--5--5--5--6--6--5--5-|-5--5--5--6--5--5-------|-5--5--5--5--6--6--5--5-|-5--5--5--10--9--9--6--6-|
D|------------------------|-------------------8--8-|------------------------|-------------------------| x3
A|------------------------|------------------------|------------------------|-------------------------|
E|------------------------|------------------------|------------------------|-------------------------|
A|------------------------|------------------------|------------------------|-------------------------|

   П  V  П  V  П  V  П  V   П  V  П  V  П  V  П  V   П  V  П   П  V  П  
E|------------------------|------------------------|--------------------|
B|------------------------|------------------------|--------------------|
G|-5--5--5--5--6--6--5--5-|-5--5--5--6--5--5-------|-5--6--5---6--6--5--|
D|------------------------|-------------------8--8-|--------------------|
A|------------------------|------------------------|--------------------|
E|------------------------|------------------------|--------------------|
A|------------------------|------------------------|--------------------|

   Guitars 1 and 2 (w/ dist)

8 bars empty, then:

   П  V  П  V  П  V  П  V   П  V  П  V  П  V  П  V   П  V  П  V  П  V  П  V   П  V  П  V  П  V  П  V 
E|------------------------|------------------------|------------------------|------------------------|
B|------------------------|------------------------|------------------------|------------------------|
G|------------------------|------------------------|------------------------|------------------------|
D|------------------------|------------------------|------------------------|------------------------|
A|------------------------|------------------------|------------------------|------------------------|
E|------------------------|------------------------|------------------------|------------------------|
A|-3--3--3--3--3--3--3--3-|-3--3--3--3--3--3--3--3-|-3--3--3--3--3--3--3--3-|-3--3--3--3--3--3--3--3-|
   *  *  *  *  *  *  *  *   *  *  *  *  *  *  *  *   *  *  *  *  *  *  *  *   *  *  *  *  *  *  *  *

   П  V  П  V  П  V  П  V   П  V  П  V  П  V  П  V   П  V  П   П  V  П    П
E|------------------------|------------------------|--------------------|-------------|
B|------------------------|------------------------|--------------------|-------------|
G|------------------------|------------------------|--------------------|-------------|
D|------------------------|------------------------|--------------------|-------------|
A|------------------------|------------------------|--------------------|-4-----------|
E|------------------------|------------------------|--------------------|-4-----------|
A|-7--7--7--7--7--7--7--7-|-7--7--7--7--7--7--7--7-|-4--4--4---4--4--4--|-4-----------|
   *  *  *  *  *  *  *  *   *  *  *  *  *  *  *  *   *  *  *   *  *  *    *

II. Guitars 1 and 2 (w/ dist)

   П  П   П   П        П  П   П   П        П  П   П  П  П   П   П  П   П
E|-------------------|-------------------|--------------------|----------------|
B|-------------------|-------------------|--------------------|----------------|
G|-------------------|-------------------|--------------------|----------------|
D|-------------------|-------------------|--------------------|----------------|
A|-------------------|-------------------|--------------------|----------------|
E|-3--3---3---3------|-3--3---3---3------|-3--3---3--3--3---3-|-3--3-----------|
A|-0--0---0---0------|-0--0---0---0------|-0--0---0--0--0---0-|-0--0---5b--r---|
   *  *   *   *        *  *   *   *        *  *   *  *  *   *   *  *   

   П  П   П   П        П  П   П   П V      П  П   П  П  П   П   П  П   П
E|-------------------|--------------x----|--------------------|----------------|
B|-------------------|---------------x---|--------------------|----------------|
G|-------------------|----------------x--|--------------------|----------------|
D|-------------------|-----------------x-|--------------------|----------------|
A|-------------------|-------------------|--------------------|----------------|
E|-3--3---3---3------|-3--3---3---3------|-3--3---3--3--3---3-|-3--3-----------|
A|-0--0---0---0------|-0--0---0---0------|-0--0---0--0--0---0-|-0--0---1b--r---|
   *  *   *   *        *  *   *   *        *  *   *  *  *   *   *  * 

   П  П   П   П        П  П   П   П        П  П   П  П  П   П   П  П   П
E|-------------------|-------------------|--------------------|----------------|
B|-------------------|-------------------|--------------------|----------------|
G|-------------------|-------------------|--------------------|----------------|
D|-------------------|-------------------|--------------------|----------------|
A|-------------------|-------------------|--------------------|----------------|
E|-3--3---3---3------|-3--3---3---3------|-3--3---3--3--3---3-|-3--3-----------|
A|-0--0---0---0------|-0--0---0---0------|-0--0---0--0--0---0-|-0--0---5b--r---|
   *  *   *   *        *  *   *   *        *  *   *  *  *   *   *  *   

   П  П   П   П        П  П   П   П V      П  П   П  П  П   П   П  П
E|-------------------|--------------x----|--------------------|----------------|
B|-------------------|---------------x---|--------------------|----------------|
G|-------------------|----------------x--|--------------------|----------------|
D|-------------------|-----------------x-|--------------------|----------------|
A|-------------------|-------------------|--------------------|----------------|
E|-3--3---3---3------|-3--3---3---3------|-3--3---3--3--3---3-|-3--3-----------|
A|-0--0---0---0------|-0--0---0---0------|-0--0---0--0--0---0-|-0--0-----------|
   *  *   *   *        *  *   *   *        *  *   *  *  *   *   *  * 

Добавлено: 01.10.2015
Другие материалы по этой песне:

Страница создана 01.10.2015
http://primanota.ru/upon-a-burning-body/world-is-my-enemy-now-chords.htm
Привет, Гость.
Предлагаем пройти революционный курс по гитаре.
Подарок от PrimaNota.Ru, забирай!