PrimaNota.ru - самый крупный в мире бесплатный архив песенных текстов, аккордов, табулатур и нот


Upon A Burning Body - Sin City - таба, видео

Регистрация Запомнить меня
Войти через:  Facebook Google Twitter Vk Yandex Mail.ru

Upon A Burning Body - Sin City - таба, видео

Печатать
Просмотров: 162
 -------------------------------------------------------------------------------
      Sin City - Upon A Burning Body
 -------------------------------------------------------------------------------
 Tabbed by:GuitarMan0182
 E-mail:tylertisi80@gmail.com

 Tuning:A# F A# D# G C
  
 First "Sin City" Tab hope you enjoy. Rate for more!
 Corrections are welcome.

                     
 Guitar:1
              4x                                          2x
 e|---------------------------|------------------------------------------------------------|
 B|---------------------------|------------------------------------------------------------|
 G|---------------------------|------------------------------------------------------------|
 D|00000-000-000-0000-333333--|-0000-0~-0000-0~-0000-0~-0000----00000-000-000-0000-33333---|
 A|00000-000-000-0000-333333--|-0000-0~-0000-0~-0000-0~-0000-7*-00000-000-000-0000-33333---|
 E|00000-000-000-0000-333333--|-0000-0~-0000-0~-0000-0~-0000----00000-000-000-0000-33333---|
   ..... ... ... .... ......    ....    ....    ....    ....    ..... ... ... .... .....
                                           2nd time play 5*--^


                                                    Repeat2x
 Guitar:2                 2x
 e|-----------------------------------------------------|-------------------------------------------|
 B|-----------------------------------------------------|-15b-14p12-14------------------------------|
 G|---15--15--15-16--16-13-15-13-12h14---15--15--15-16--|-------------------------------------------|
 D|-13--13--13-------------------------13--13--13-------|-------------------------------------------|
 A|-----------------------------------------------------|-------------------------------------------|
 E|-----------------------------------------------------|-------------------------------------------|



 

And I'm ready for war..... 

 Guitar:1
 e|----------------------------------5+---------------------------------------|
 B|----------------------------------5+---------------------------------------|          
 G|----------------------------------5+---------------------------------------|
 D|2-2-------2-2------0~----2-2--0--------------------------------------------|       
 A|2-2-------2-2------0~----2-2--0--------------------------------------------|
 E|2-2-------2-2--\/\-0~----2-2--0--------------------------------------------|
   . .       . .            . .  .
 
*\/\=place hand ligtly over strings go down
near the 12th fret and back up then back down.
You'll know what I mean when you hear it.

 Guitar:2                Repeat 5x
 e|---------------------------------------------------------------------------|
 B|---------------------------------------------------------------------------|
 G|---------------------------------------------------------------------------|
 D|---------------------------------------------------------------------------|
 A|--------4---3-1------------------------------------------------------------|
 E|0000000---00---------------------------------------------------------------|
   .......   ..





  Verse
 Guitar:1
e|---------------------------------|--------------|---------------------------|
B|------------2x-------------------|----1st-time--|------2nd time-------------|
G|---------------------------------|--------------|---------------------------|
D|---------------------------------|--5-3-2-2/3\5-|---5-3-2-0-0-0-0-----------|
A|00000--3-000000000-5-000000-7/6--|--5-3-2-2/3\5-|---5-3-2-0-0-0-0-----------|
E|00000----000000000---000000------|--5-3-2-2/3\5-|---5-3-2-0-0-0-0-----------|
  .....    .........   ......                                 . . .

   
   Verse
  Guitar:2
e|---------------------------------|--------------|----------------------------|
B|-----------2x--------------------|----1st-time--|------2nd-time--------------|
G|---------------------------------|--------------|----------------------------|
D|0-0-0-0-0-0-0-0-0-0-3-0-5-0-0-0--|--5-3-2-2/3\5-|---5-3-2-0-0-0-0------------|
A|0-0-0-0-0-0-0-0-0-0-3-0-5-0-0-0--|--5-3-2-2/3\5-|---5-3-2-0-0-0-0------------|
E|0-0-0-0-0-0-0-0-0-0-3-0-5-0-0-0--|--5-3-2-2/3\5-|---5-3-2-0-0-0-0------------|
  . . . . . . . . . .       . . .                             . . .





  Pre-chorus
  Guitar:1-plays part 4x   Guitar:2-plays 1x
 e|---------------------------------------------------------------------------|
 B|---------------------------------------------------------------------------|
 G|---------------------------------------------------------------------------|
 D|-5-3-2-000-5-3-2-000-00-5-3-2-22-0-00-2------------------------------------|
 A|-5-3-2-000-5-3-2-000-00-5-3-2-22-0-00-2------------------------------------|
 E|-5-3-2-000-5-3-2-000-00-5-3-2-22-0-00-2------------------------------------|
                    ... ..       ..   ..
  
 Guitar:2
 e|---------------------------------------------------------------------------|
 B|--------9--------8-------9--------8--------9--------8-----7h9h10\12b/------|
 G|--10-8-7--10-8-7---10-8-7--10-8-7---10-8-7---10-8-7--7h9h10----------------|
 D|---------------------------------------------------------------------------|
 A|---------------------------------------------------------------------------|
 E|---------------------------------------------------------------------------|





Guitar:1 Chorus
e|-------------------------------------------------|----------------------------------------|-----------|
B|-------------------------------------------------|-----------------3x---------------------|-----------|
G|-------------------------------------------------|----------------------------------------|-----------|
D|-000-0~----0000-0000-------0000-0-0-00--5-3-2-000|----------------------------------------|-5-3-0-0-0-|
A|-000-0~----0000-0000-------0000-0-0-00--5-3-2-000|--0000-3-0000-5-00000-8p5-00000-7-0000-3|-5-3-0-0-0-|
E|-000-0~----0000-0000-------0000-0-0-00--5-3-2-000|--0000---0000---00000-----00000---0000--|-5-3-0-0-0-|
   ... .     .... ....       .... . . ..        ...   ....   ....   .....     .....   ....        . . .  
   
Guitar:2 Chorus
e|-------------------------------------------------|----------------------------------------|-----------|
B|-------------------------------------------------|----------------------------------------|-----------|
G|-------------------------------------------------|----------------------------------------|-----------|
D|----------------------------------------5-3-2-000|-0-0-0-0-0-0-0-0-0-0-0-0-0-0-0-0-0-0-0-0|-5-3-0-0-0-|
A|----------------------------------------5-3-2-000|-0-0-0-0-0-0-0-0-0-0-0-0-0-0-0-0-0-0-0-0|-5-3-0-0-0-|
E|-0000000000000000000000-3b-00000000000--5-3-2-000|-0-0-0-0-0-0-0-0-0-0-0-0-0-0-0-0-0-0-0-0|-5-3-0-0-0-|
   ......................    ............       ...  . . . . . . . . . . . . . . . . . . . .      . . .


  Left channel  Right channel    Both
 e|-----------|--------------|---------|------------------------------------|
 B|-----------|--------------|---------|------------------------------------|
 G|-----------|--------------|---------|------------------------------------|
 D|2222-2-2-2-|----2222------|--0-0----|---GUILTY-AS-CHARGED!---------------|
 A|3333-3-2-2-|----3333------|--0-0----|------------------------------------|
 E|2222-2-2-2-|----2222------|--0-0----|------------------------------------|
   ....   .        ....         . .


   Guitar:1
e|----------------------------------|-----------------------------------------------------------------|
B|-------------2x-------------------|-----------------------------------------------------------------|
G|----------------------------------|-----------------------------------------------------------------| 
D|-1111-1-1-1--1111-1-1-1--1111-1~--|--000000-0-0000-00000-00------------00000-0-0000-00000-5-3-0-0-0-|
A|-3333-3-2-2--3333-3-2-2--3333-3~--|--000000-0-0000-00000-00------------00000-0-0000-00000-5-3-0-0-0-|
E|-1111-1-1-1--1111-1-1-1--1111-1~--|--000000-0-0000-00000-00------------00000-0-0000-00000-5-3-0-0-0-|
   ....   .    ....   .    ....        ...... . .... ..... ..            ..... . .... .....     . . .
   Guitar:2
e|----------------------------------|-----------------------------------------------------------------|
B|-------------2x-------------------|-----------------------------------------------------------------|
G|----------------------------------|------------------------------------------------------10-8-------|
D|-1111-1-1-1--1111-1-1-1--1111-1~--|------------------------------------------------------x--x-0-0-0-|
A|-3333-3-2-2--3333-3-2-2--3333-3~--|-5---3-2-1-----------------5+----5---3-2-1------------8--6-0-0-0-|
E|-1111-1-1-1--1111-1-1-1--1111-1~--|--3-2-----0000-000000-00----------3-2------00000-00000-----0-0-0-|
   ....   .    ....   .    ....                .... ...... ..                   ..... .....     . . .


 



  Pre-chorus
  Guitar:1-plays part 4x   Guitar:2-plays 1x
 e|---------------------------------------------------------------------------|
 B|---------------------------------------------------------------------------|
 G|---------------------------------------------------------------------------|
 D|-5-3-2-000-5-3-2-000-00-5-3-2-22-0-00-2------------------------------------|
 A|-5-3-2-000-5-3-2-000-00-5-3-2-22-0-00-2------------------------------------|
 E|-5-3-2-000-5-3-2-000-00-5-3-2-22-0-00-2------------------------------------|
                    ... ..       ..   ..
  
 Guitar:2                   
 e|---------------------------------------------------------------------------|
 B|--------9--------8-------9--------8--------9--------8-----7h9h10\12--------|
 G|--10-8-7--10-8-7---10-8-7--10-8-7---10-8-7---10-8-7--7h9h10----------------|
 D|---------------------------------------------------------------------------|
 A|---------------------------------------------------------------------------|
 E|---------------------------------------------------------------------------|






 Guitar:1 Chorus
e|-------------------------------------------------|----------------------------------------|----------|
B|-------------------------------------------------|-----------------3x---------------------|----------|
G|-------------------------------------------------|----------------------------------------|----------|
D|-000-0~----0000-0000-------0000-0-0-00--5-3-2-000|----------------------------------------|-5-3-0-0-0|
A|-000-0~----0000-0000-------0000-0-0-00--5-3-2-000|--0000-3-0000-5-00000-8p5-00000-7-0000-3|-5-3-0-0-0|
E|-000-0~----0000-0000-------0000-0-0-00--5-3-2-000|--0000---0000---00000-----00000---0000--|-5-3-0-0-0|
   ... .     .... ....       .... . . ..        ...   ....   ....   .....     .....   ....        . . .  
   
Guitar:2 Chorus
e|-------------------------------------------------|----------------------------------------|-----------|
B|-------------------------------------------------|----------------------------------------|-----------|
G|-------------------------------------------------|----------------------------------------|-----------|
D|----------------------------------------5-3-2-000|-0-0-0-0-0-0-0-0-0-0-0-0-0-0-0-0-0-0-0-0|-5-3-0-0-0-|
A|----------------------------------------5-3-2-000|-0-0-0-0-0-0-0-0-0-0-0-0-0-0-0-0-0-0-0-0|-5-3-0-0-0-|
E|-0000000000000000000000-3b-00000000000--5-3-2-000|-0-0-0-0-0-0-0-0-0-0-0-0-0-0-0-0-0-0-0-0|-5-3-0-0-0-|
   ......................    ............       ...  . . . . . . . . . . . . . . . . . . . .      . . .
  
  
 LIFE SUCKS AND THEN YOU DIE
  Guitar:1
 e|------------------------------------------------------|---------------------|
 B|-----------------------------------2x-----------------|---------------------|
 G|------------------------------------------------------|---------------------|
 D|------------------------0000-0~-----------0000-0~-----|--0-0-0--------------|
 A|------------------------0000-0~-----------0000-0~-----|--0-0-0--------------|
 E|------------------------0000-0~-00-0------0000-0~-----|--0-0-0--------------|
  Guitar:2                 ....    ..                       . . .
 e|------------------------------------------------------|---------------------|
 B|-----------------------------------2x-----------------|---------------------|
 G|------------------------------------------------------|---------------------|
 D|------------------------00000-0~----------0000-0~-----|--0-0-0--------------|
 A|------------------------00000-0~----------0000-0~-----|--0-0-0--------------|
 E|------------------------00000-0~-----00-0-0000-0~-----|--0-0-0--------------|
                           .....        ..                  . . . 
 
   Guitar:1 & 2
 e|-----------------------------------|-------------|--------------------------|
 B|-----------2x----------------------|--1st-time---|---2nd-time---------------|
 G|-----------------------------------|---ending----|----ending----------------|
 D|--000--000-00000-000000------------|-2-0-00-0-0--|---5--3--0~~--------------|
 A|--000--000-00000-000000------------|-2-0-00-0-0--|---5--3--0~~--------------|
 E|--000--000-00000-000000------------|-2-0-00-0-0--|---5--3--0~~--------------|
     ...  ... ..... ......                  .. . .      
                                                        Guitar:2
                                                    |--------------------------|
                                                    | -------------------------|
                                                    | -------------------------|
                                                    |------12/0~---------------|
                                                    |------12/0~---------------|
                                                    |------12/0~---------------|

************************************

 | /   slide up
 | \   slide down
 | h   hammer-on
 | p   pull-off
 | ~   vibrato
 | +   harmonic
 | x   Mute note
 | .   Palm mute

 ************************************
Добавлено: 05.02.2014
Другие материалы по этой песне:

Страница создана 05.02.2014
http://primanota.ru/upon-a-burning-body/sin-city-chords.htm
Привет, Гость.
Предлагаем пройти революционный курс по гитаре.
Подарок от PrimaNota.Ru, забирай!