PrimaNota.ru - самый крупный в мире бесплатный архив песенных текстов, аккордов, табулатур и нот


Upon A Burning Body - Scars - таба, видео

Регистрация Запомнить меня
Войти через:  Facebook Google Twitter Vk Yandex Mail.ru

Upon A Burning Body - Scars - таба, видео

Печатать
Просмотров: 200
Новый альбом группы 'Черный Кузнец' по культовому сериалу 'Сверхъестественное'!
-----------------------------------------------------------------------------------------
|                              UPON A BURNING BODY - SCARS                              |
|                         Album: The World Is My Enemy Now (2014)                       |
-----------------------------------------------------------------------------------------
           If you have questions or corrections feel free to send me a message:
                        http://profile.ultimate-guitar.com/godspeedy/
                           https://www.facebook.com/Godspeedy14
                           
        Also, check out my Youtube channel: http://www.youtube.com/user/Godspeedy14

                                 Tuning: 7 string AEADGBE 
                                                        
**************************************GUITAR NOTATIONS***********************************
*                                                                                       *
*                              | *   palm mute              |                           *
*                              | s   slide                  |                           *
*                              | h   hammer-on              |                           *
*                              | p   pull-off               |                           *
*                              | ~   vibrato                |                           *
*                              | +   pinch harmonics        |                           *
*                              | //  digitech whammy oct up |                           *
*                                                                                       *
*****************************************************************************************

-----------------------------------------------------------------------------------------
|                                    INTRO (00:00-00:41)                                |
-----------------------------------------------------------------------------------------

Guitars 1 and 2 (w/ dist)

E|---------------------|     |----------------------|
B|---------------------|     |----------------------|
G|---------------------|     |----------------------|
D|---------------------| x3  |----------------------|
A|---------------------|     |----------------------|
E|-0--0--0-1--0--------|     |-0--0--0-1--0---------|
A|-0--0--0-1--0--------|     |-0--0--0-1--0-12~~13~~|
   *  *  * *  *                *  *  * *  *

E|---------------------------------|---------------------------------|
B|---------------------------------|---------------------------------|
G|---------------------------------|---------------------------------|
D|---------------------------------|---------------------------------|
A|-0---0-----1---0---6s5---5s4---1-|-0---0-----1---0---6s5-----------|
E|-0-0-0-0-0-1-0-0-0-6s5-0-3s2-0-1-|-0-0-0-0-0-1-0-0-0-6s5-0-4-3-0-1-|
A|-0-0-0-0-0-1-0-0-0-6s5-0-----0-1-|-0-0-0-0-0-1-0-0-0-6s5-0-4-3-0-1-|\
     *   * *   *   *     *     *       *   * *   *   *     * * * * *   x2
E|---------------------------------|---------------------------------|/
B|---------------------------------|---------------------------------|
G|---------------------------------|---------------------------------|
D|---------------------------------|---------------------------------|
A|-0---0-----1---0---6s5---5s4---1-|-0---0-----1---0---6s5-----------|
E|-0-0-0-0-0-1-0-0-0-6s5-0-3s2-0-1-|-0-0-0-0-0-1-0-0-0-6s5-0-4-3-4~~~|
A|-0-0-0-0-0-1-0-0-0-6s5-0-----0-1-|-0-0-0-0-0-1-0-0-0-6s5-0-4-3-----|
     *   * *   *   *     *     *       *   * *   *   *     * * * +

-----------------------------------------------------------------------------------------
|                                   VERSE (00:41-01:01)                                 |
-----------------------------------------------------------------------------------------

I. Guitar 1 (w/ dist)

E|---------------------------------|-----------------------------------|
B|---------------------------------|-----------------------------------|
G|---------------------------------|-----------------------------------|
D|---------------------------------|-----------------------------7h8p7-|
A|---------------------------------|-----------------------------------|
E|---------------6-5---------------|-----------------------5-----------|
A|-1p0-0-0-0-0-0-----0-0-0-0-0-0-0-|-1p0-0-0-0-0-0-0-0-5-8---0-5-------|
       *   * * *     *   *   * * *       *   * * * * * * *   * *
E|---------------------------------|-----------------------------------|
B|---------------------------------|-----------------------------------|
G|---------------------------------|-----------------------------------|
D|---------------------------------|-------------------------7h8p7-----|
A|---------------------------------|-------------------------------8p7-|
E|---------------6-5---------------|---------------5-----4-------------|
A|-1p0-0-0-0-0-0-----0-0-0-0-0-0-0-|-1p0-0-0-0-5-8---0-5---7-----------|
       *   * * *     *   *   * * *       *   * * *   * *

   Guiitar 2 (w/ dist)

E|---------------------------------|-----------------------------------|
B|---------------------------------|-----------------------------------|
G|---------------------------------|-----------------------------------|
D|---------------------------------|-----------------------------7h8p7-|
A|---------------------------------|-----------------------------------|
E|---------------6-5---------------|-----------------------5-----------|
A|-1p0-0-0-0-0-0-----0-0-0-0-0-0-0-|-1p0-0-0-0-0-0-0-0-5-8---0-5-------|
       *   * * *     *   *   * * *       *   * * * * * * *   * *
E|---------------------------------|-----------------------------------|
B|---------------------------------|-----------------------------------|
G|---------------------------------|-----------------------------------|
D|---------------------------------|-------------------------7h8p7-----|
A|---------------------------------|-------------------------------8p7-|
E|---------------9-8---------------|---------------5-----4-------------|
A|-1p0-0-0-0-0-0-----0-0-0-0-0-0-0-|-1p0-0-0-0-5-8---0-5---7-----------|
       *   * * *     *   *   * * *       *   * * *   * *

II. Guitars 1 and 2 (w/ dist)

E|---------------------------------|-----------------------------------|
B|---------------------------------|-----------------------------------|
G|---------------------------------|-----------------------------------|
D|---------------------------------|-----------------------------7h8p7-|
A|-1p0---0-------------------------|-1p0---0-------0-------------------|
E|-1p0-0-0-------------------------|-1p0-0-0-------0-------5-----------|
A|-1p0-0-0-0-0-0-0-0-0-0-0-0-0-0-0-|-1p0-0-0-0-0-0-0-0-5-8---0-5-------|
       *   * * * * * * * * * * * *       *   * * *   * * *   * *
E|---------------------------------|-----------------------------------|
B|---------------------------------|-----------------------------------|
G|---------------------------------|-----------------------------------|
D|---------------------------------|-------------------------7h8p7-----|
A|-1p0---0-------------------------|-1p0---0-----------------------8p7-|
E|-1p0-0-0-------------------------|-1p0-0-0-------5-----4-------------|
A|-1p0-0-0-0-0-0-0-0-0-0-0-0-0-0-0-|-1p0-0-0-0-5-8---0-5---7-----------|
       *   * * *     *   *   * * *       *   * * *     

-----------------------------------------------------------------------------------------
|                                 PRE-CHORUS (01:01-01:21)                              |
-----------------------------------------------------------------------------------------

Guitars 1 and 2 (w/ dist)

E|------------------------------|-----------------------------|
B|------------------------------|-----------------------------|
G|------------------------------|-----------------------------|
D|------------------------------|-----------------------------|
A|-1p0---0------1p0---0---1---0-|-----1p0---0---1---0---------|
E|-1p0-0-0------1p0-0-0-0-1-0-0-|-----1p0-0-0-0-1-0-0-0-0-0-0-|
A|-1p0-0-0------1p0-0-0-0-1-0-0-|-----1p0-0-0-0-1-0-0-0-0-0-0-|
       *            *   *   *             *   *   *   * * * *
E|------------------------------|--------------------------|
B|------------------------------|--------------------------|
G|------------------------------|--------------------------|
D|------------------------------|--------------------------|
A|-1p0---0------1p0---0---1---0-|-----1p0---0--------------|
E|-1p0-0-0------1p0-0-0-0-1-0-0-|-----1p0-0-0------0-0-----|
A|-1p0-0-0------1p0-0-0-0-1-0-0-|-----1p0-0-0------0-0-----|
       *            *   *   *             *        * *
E|------------------------------|-----------------------------|
B|------------------------------|-----------------------------|
G|------------------------------|-----------------------------|
D|------------------------------|-----------------------------|
A|-1p0---0------1p0---0---1---0-|-----1p0---0---1---0---------|
E|-1p0-0-0------1p0-0-0-0-1-0-0-|-----1p0-0-0-0-1-0-0-0-0-0-0-|
A|-1p0-0-0------1p0-0-0-0-1-0-0-|-----1p0-0-0-0-1-0-0-0-0-0-0-|
       *            *   *   *             *   *   *   * * * *
E|------------------------------|---------------------------------|
B|------------------------------|---------------------------------|
G|------------------------------|---------------------------------|
D|------------------------------|---------------------------------|
A|-1p0---0------1p0---0---1---0-|-----1p0---0-12-8-------8--------|
E|-1p0-0-0------1p0-0-0-0-1-0-0-|-----1p0-0-0------12-10---12-8-7-|
A|-1p0-0-0------1p0-0-0-0-1-0-0-|-----1p0-0-0---------------------|
       *            *   *   *             *   

-----------------------------------------------------------------------------------------
|                                    CHORUS (01:21-01:40)                               |
-----------------------------------------------------------------------------------------

Guitar 1 (w/ dist)

E|---------------------------------|---------------------------------|
B|---------------------------------|---------------------------------|
G|---------------------------------|---------------------------------|
D|---------------------------------|---------------------------------|\
A|-5-5-5-5-5-5-5-5-5-5-5-5-5-5-5-5-|-7-7-7-7-7-7-7-7-8-8-8-8-8-8-8-8-| \
E|-5-5-5-5-5-5-5-5-5-5-5-5-5-5-5-5-|-7-7-7-7-7-7-7-7-8-8-8-8-8-8-8-8-|  \
A|-5-5-5-5-5-5-5-5-5-5-5-5-5-5-5-5-|-7-7-7-7-7-7-7-7-8-8-8-8-8-8-8-8-|   \
                                                                          x2
E|---------------------------------|-------------------------------------|/
B|---------------------------------|-------------------------------------|
G|---------------------------------|-------------------------------------|
D|---------------------------------|-------------------------------------|
A|-1-1-1-1-1-1-1-1-1-1-1-1-1-1-1-1-|-----------------12-8-------8--------|
E|-1-1-1-1-1-1-1-1-1-1-1-1-1-1-1-1-|-4-3-0-1-0-1----------12-10---12-8-7-|
A|-1-1-1-1-1-1-1-1-1-1-1-1-1-1-1-1-|-4-3-0-1-0-1-0-0---------------------|
                                     * * * * * * * *

Guitar 2 (w/ dist)

E|-----------------------------------------------|-----------------------------------------------|
B|-----------------------------------------------|-----------------------------------------------|
G|-----------------------------------------------|-----------------------------------------------|
D|-14-------14-------15-------14-------15-14-12~~|-14-------14-------15-------14-------15-14-12~~|
A|----12-12----12-12----12-12----12-12-----------|----12-12----12-12----12-12----12-12-----------|
E|-----------------------------------------------|-----------------------------------------------|
A|-----------------------------------------------|-----------------------------------------------|
      *  *     *  *     *  *     *  *                 *  *     *  *     *  *     *  *  
E|-----------------------------|------------------|-----------------------------------------------|
B|-----------------------------|------------------|-----------------------------------------------|
G|s12--------------------------|s14~~~~9~~~~~10~~~|-----------------------------------------------|
D|------15---14----------------|------------------|-14-------14-------15-------14-------15-14-12~~|
A|---------------15---12---15--|------------------|----12-12----12-12----12-12----12-12-----------|
E|-----------------------------|------------------|-----------------------------------------------|
A|-----------------------------|------------------|-----------------------------------------------|
                                                       *  *     *  *     *  *     *  * 
E|-----------------------------------------------|-----------------------------|------------------|
B|-----------------------------------------------|-----------------------------|------------------|
G|-----------------------------------------------|s12--------------------------|s14~~~~15~~~~14~~~|
D|-14-------14-------15-------14-------15-14-12~~|------15---14----------------|------------------|
A|----12-12----12-12----12-12----12-12-----------|---------------15---12---15--|------------------|
E|-----------------------------------------------|-----------------------------|------------------|
A|-----------------------------------------------|-----------------------------|------------------|
      *  *     *  *     *  *     *  *    

-----------------------------------------------------------------------------------------
|                                 INTERLUDE (01:40-01:55)                               |
-----------------------------------------------------------------------------------------

E|-------------------------|---------------------------------|
B|-------------------------|---------------------------------|
G|-------------------------|---------------------------------|
D|-------------------------|---------------------------------|
A|-5--5--5--5--5--5--5--5--|-13--13--13--13--13--13--13--13--|
E|-5--5--5--5--5--5--5--5--|-13--13--13--13--13--13--13--13--|
A|-5--5--5--5--5--5--5--5--|-13--13--13--13--13--13--13--13--|

E|---------------------------------|---------------------------------|
B|---------------------------------|---------------------------------|
G|---------------------------------|---------------------------------|
D|---------------------------------|---------------------------------|
A|-0---0-----1---0---6s5---5s4---1-|-0---0-----1---0---6s5-----------|
E|-0-0-0-0-0-1-0-0-0-6s5-0-3s2-0-1-|-0-0-0-0-0-1-0-0-0-6s5-0-4-3-0-1-|
A|-0-0-0-0-0-1-0-0-0-6s5-0-----0-1-|-0-0-0-0-0-1-0-0-0-6s5-0-4-3-0-1-|
     *   * *   *   *     *     *       *   * *   *   *     * * * * *  
E|---------------------------------|---------------------------------|
B|---------------------------------|---------------------------------|
G|---------------------------------|---------------------------------|
D|---------------------------------|---------------------------------|
A|-0---0-----1---0---6s5---5s4---1-|-0---0-----1---0---6s5-----------|
E|-0-0-0-0-0-1-0-0-0-6s5-0-3s2-0-1-|-0-0-0-0-0-1-0-0-0-6s5-0-4-3-4~~~|
A|-0-0-0-0-0-1-0-0-0-6s5-0-----0-1-|-0-0-0-0-0-1-0-0-0-6s5-0-4-3-----|
     *   * *   *   *     *     *       *   * *   *   *     * * * +

-----------------------------------------------------------------------------------------
|                                   VERSE 2 (01:55-02:15)                               |
-----------------------------------------------------------------------------------------
                                       same as VERSE
-----------------------------------------------------------------------------------------
|                                 PRE-CHORUS 2 (02:15-02:35)                            |
-----------------------------------------------------------------------------------------
                                    same as PRE-CHORUS           
-----------------------------------------------------------------------------------------
|                                    BRIDGE (02:35-03:06)                               |
-----------------------------------------------------------------------------------------

I. Guitar 1 (w/ dist)

E|--------|--------|--------|--------------------------|----------|
B|--------|--------|--------|--------------------------|----------|
G|--------|--------|--------|--------------------------|----------|
D|--------|--------|--------|--------------------------|----------|
A|-0------|--------|--------|-4-3-0-1------------------|----------|
E|-0------|--------|--------|-4-3-0-1---4-3-0-1-1--1---|----------|
A|-0------|--------|--------|-4-3-0-1---4-3-0-1-1--1---|----------|
                                        * * * * *  *

   Guitar 2 (w/ dist)

E|-------------------------------------------------|-------------------------------------------------|
B|-------------------------------------------------|-------------------------------------------------|
G|-------------------------------------------------|-------------------------------------------------|
D|-------------------------------------------------|-------------------------------------------------|
A|-0-----------------------------------------------|-------------------------------------------------|
E|-0-----------------------------------------------|-------------------------------------------------|
A|-0--0--0--0--0--0--0--0--0--0--0--0--0--0--0--0--|-0--0--0--0--0--0--0--0--0--0--0--0--0--0--0--0--|
      *  *  *     *  *  *  *  *  *     *  *  *  *    *  *  *     *  *  *  *  *  *  *     *  *  *  *
E|---------------------------------------------------|--------------------------|--------------------|
B|---------------------------------------------------|--------------------------|--------------------|
G|---------------------------------------------------|--------------------------|--------------------|
D|---------------------------------------------------|--------------------------|--------------------|
A|---------------------------------------------------|-4-3-0-1------------------|--------------------|
E|---------------------------------------------------|-4-3-0-1---4-3-0-1-1--1---|--------------------|
A|-0--0--0--0--0-0-0--0--0--0-0-0--0--0--0--0--0--0--|-4-3-0-1---4-3-0-1-1--1---|--------------------|
   *  *  *  *  * * *  *  *  * * *  *     *  *  *  *              * * * * *  *

II. Guitars 1 and 2 (w/ dist)

E|---------------------------------------------|------------------------------|
B|---------------------------------------------|------------------------------|
G|---------------------------------------------|------------------------------|
D|---------------------------------------------|------------------------------|
A|---------------------------------------------|------------------------------|
E|---------------------------------------------|------------------------------|
A|-0-0-0--0--0--0-0-0--0--0-------0-0-0--0--0--|-------0-0-0--0--0-----0------|
   * * *  *  *  * * *  *          * * *  *             * * *  *    
E|---------------------------------------------|------------------------------|
B|---------------------------------------------|------------------------------|
G|---------------------------------------------|------------------------------|
D|---------------------------------------------|------------------------------|
A|---------------------------------------------|-4-3-0-1-----------1/////-----|
E|---------------------------------------------|-4-3-0-1---4-3-0-1-1/////-----|
A|-0-0-0--0--0--0-0-0--0--0-------0-0-0--0--0--|-4-3-0-1---4-3-0-1-1/////-----|
   * * *  *  *  * * *  *          * * *  *                         (w/ octaver +1 oct up)


E|---------------------------------------------|------------------------------|
B|---------------------------------------------|------------------------------|
G|---------------------------------------------|------------------------------|
D|---------------------------------------------|------------------------------|
A|---------------------------------------------|------------------------------|
E|---------------------------------------------|------------------------------|
A|-0-0-0--0--0--0-0-0--0--0-------0-0-0--0--0--|-------0-0-0--0--0-----0------|
   * * *  *  *  * * *  *          * * *  *             * * *  *    
E|---------------------------------------------|------------------------------|
B|---------------------------------------------|------------------------------|
G|---------------------------------------------|------------------------------|
D|---------------------------------------------|------------------------------|
A|---------------------------------------------|-4-3-1s12---------------------|
E|---------------------------------------------|-4-3-1s12---------------------|
A|-0-0-0--0--0--0-0-0--0--0-------0-0-0--0--0--|-4-3-1s12---------------------|
   * * *  *  *  * * *  *          * * *  *

-----------------------------------------------------------------------------------------
|                                   CHORUS 2 (03:06-03:26)                              |
-----------------------------------------------------------------------------------------
                                        same as CHORUS
-----------------------------------------------------------------------------------------
|                                     OUTRO (03:26-03:45)                               |
-----------------------------------------------------------------------------------------

Guitars 1 and 2 (w/ dist)

E|-------------------------|---------------------------------|
B|-------------------------|---------------------------------|
G|-------------------------|---------------------------------|
D|-------------------------|---------------------------------|
A|-5--5--5--5--5--5--5--5--|-13--13--13--13--13--13--13--13--|
E|-5--5--5--5--5--5--5--5--|-13--13--13--13--13--13--13--13--|
A|-5--5--5--5--5--5--5--5--|-13--13--13--13--13--13--13--13--|

E|--------|--------|--------|
B|--------|--------|--------|
G|--------|--------|--------|
D|--------|--------|--------|
A|-0------|--------|--------|
E|-0------|--------|--------|
A|-0------|--------|--------|

Добавлено: 11.10.2014
Другие материалы по этой песне:

Страница создана 08.08.2014
http://primanota.ru/upon-a-burning-body/scars-chords.htm
Привет, Гость.
Предлагаем пройти революционный курс по гитаре.
Подарок от PrimaNota.Ru, забирай!