PrimaNota.ru - самый крупный в мире бесплатный архив песенных текстов, аккордов, табулатур и нот


Upon A Burning Body - Red Razor Wrists - таба, видео

Регистрация Запомнить меня
Войти через:  Facebook Google Twitter Vk Yandex Mail.ru

Upon A Burning Body - Red Razor Wrists - таба, видео

Печатать
Просмотров: 170
Уроки эстрадного вокала в Санкт-Петербурге
Intro:
Both Guitars(2x)
B |----------------------------------------------------------|
F#|----------------------------------------------------------|
D |----------------------------------------------------------|
A |-1p0-0-0--1-0--0--0--0-0-0--------------------------------|
E |-1p0-0-0--1-0--0--0--0-0-0--------------------------------|
A |-1p0-0-0--1-0--0--0--0-0-0--8p7p5p0--10p8p7p0--12p10p8p0--|
  pm-------------------------

Guitar 1(2x)
B |----------------------------------------------------------|
F#|----------------------------------------------------------|
D |----------------------------------------------------------|
A |-1p0-0-0--1-0--0--0--0-0-0--------------------------------|
E |-1p0-0-0--1-0--0--0--0-0-0--------------------------------|
A |-1p0-0-0--1-0--0--0--0-0-0--8p7p5p0--10p8p7p0--12p10p8p0--|
  pm-------------------------

Guitar 2(2x)
B |---------------------------------------------------------------|
F#|---------------------------------------------------------------|
D |---------------------------------------------------------------|
A |-1p0-0-0--1-0--0--0--0-0-0-------------------------------------|
E |-1p0-0-0--1-0--0--0--0-0-0-------------------------------------|
A |-1p0-0-0--1-0--0--0--0-0-0--12p10p8p0--14p12p10p0--15p14p12p0--|
  pm-------------------------

Verse:
Guitar 1
B |---------------------------------------------------------------|
F#|---------------------------------------------------------------|
D |---------------------------------------------------------------|
A |-----------------------15p12-----------------------------12----|
E |--------------------------------------------------0h13p10--13--|
A |-12b14-0--0--0-0--0-0---------12b14--0--0--0h14h15-------------|
              pm--------

B |-----------------------------------------------------------------|
F#|-----------------------------------------------7-8-7-5---5-7-----|
D |-------------------------------------------------------8------8--|
A |-----------------------15p12-------------------------------------|
E |-----------------------------------------------------------------|
A |-12b14-0--0--0-0--0-0---------12b14--0--0--0-0-------------------|
              pm--------                    pm---

B |-----------------------------------------------------------|
F#|-----------------------------------------------------------|
D |-----------------------------------------------------------|
A |-----------------------15p12-------------------------12----|
E |-----------------------------*9ph-------------0h13p10--13--|
A |-12b14-0--0--0-0--0-0------------0--0--0h14h15-------------|
              pm--------        

B |-----------------------------------------------------------------|
F#|-----------------------------------------------7-8-7-5---5-7-----|
D |-------------------------------------------------------8------8--|
A |-----------------------15p12-------------------------------------|
E |-----------------------------------------------------------------|
A |-12b14-0--0--0-0--0-0---------12b14--0--0--0-0-------------------|
              pm--------                    pm---

Guitar 2
B |---------------------------------------------------------------|
F#|---------------------------------------------------------------|
D |---------------------------------------------------------------|
A |-----------------------15p12-----------------------------12----|
E |--------------------------------------------------0h13p10--13--|
A |-12b14-0--0--0-0--0-0---------12b14--0--0--0h14h15-------------|
              pm--------

B |----------------------------------------------------------------------|
F#|-----------------------------------------------10-11-10-8----8-10-----|
D |----------------------------------------------------------11------11--|
A |-----------------------15p12------------------------------------------|
E |----------------------------------------------------------------------|
A |-12b14-0--0--0-0--0-0---------12b14--0--0--0-0------------------------|
              pm--------                    pm---

B |-----------------------------------------------------------|
F#|-----------------------------------------------------------|
D |-----------------------------------------------------------|
A |-----------------------15p12-------------------------12----|
E |-----------------------------*9ph-------------0h13p10--13--|
A |-12b14-0--0--0-0--0-0------------0--0--0h14h15-------------|
              pm--------        

B |----------------------------------------------------------------------|
F#|-----------------------------------------------10-11-10-8----8-10-----|
D |----------------------------------------------------------11------11--|
A |-----------------------15p12------------------------------------------|
E |----------------------------------------------------------------------|
A |-12b14-0--0--0-0--0-0---------12b14--0--0--0-0------------------------|
              pm--------                    pm---

Pre-Chorus:
Both Guitars
B |--------------------------------------------------------|
F#|--------------------------------------------------------|
D |--------------------------------------------------------|
A |--------------------------------------------------------|
E |--------------------------------------------------------|
A |-0-0-0--0-0-0-let-ring---12b14--0------------pick-slide-|

B |--------------------------------------------------------------|
F#|--------------------------------------------------------------|
D |--------------------------------------------------------------|
A |--------------------------------------------------------------|
E |--------------------------------------------------------------|
A |-1-0-0--0-0-0-0--0-0-0-0--0-0-0-0--1-0-0-1-0-0--0-0-0-0--0-0--|
  pm-----------------------------------------------------------

B |---------------------------------------------------------------------------------|
F#|---------------------------------------------------------------------------------|
D |---------------------------------------------------------------------------------|
A |-1-0--0-0-0-0--0-0-0-0--0-0-0-0--1-0---1-0--0-0-0-0--0-0-0-0-0-0-0--0-0-0-0-0-1--|
E |-1-0--0-0-0-0--0-0-0-0--0-0-0-0--1-0---1-0--0-0-0-0--0-0-0-0-0-0-0--0-0-0-0-0-1--|
A |-1-0--0-0-0-0--0-0-0-0--0-0-0-0--1-0---1-0--0-0-0-0--0-0-0-0-0-0-0--0-0-0-0-0-1--|
       pm-------------------------           pm-----------------------------------

B |-------------------------------------------------------------------------------------|
F#|-------------------------------------------------------------------------------------|
D |-------------------------------------------------------------------------------------|
A |-1-0--0-0-0-0--0-0-0-0--0-0-0-0--1-0---1-0--0-0-0-0--0-0-0-0-0-0-0--3-3-3-3-4-4-4-4--|
E |-1-0--0-0-0-0--0-0-0-0--0-0-0-0--1-0---1-0--0-0-0-0--0-0-0-0-0-0-0--3-3-3-3-4-4-4-4--|
A |-1-0--0-0-0-0--0-0-0-0--0-0-0-0--1-0---1-0--0-0-0-0--0-0-0-0-0-0-0--3-3-3-3-4-4-4-4--|
       pm-------------------------           pm---------------------------------------

Chorus:
Both Guitars
B |-----------------------------------------------------|
F#|-----------------------------------------------------|
D |-----------------------------------------------------|
A |-5---------------------------1--------------------4--|
E |-5--5-5-5--5-5--5-5-5-5--5-5-1--1-1-1--1-1--1-1-1-4--|
A |-5--5-5-5--5-5--5-5-5-5--5-5-1--1-1-1--1-1--1-1-1-4--|
     pm------------------------  pm-----------------

B |-----------------------------------------------------|
F#|-----------------------------------------------------|
D |-----------------------------------------------------|
A |-5---------------------------1--------------------1--|
E |-5--5-5-5--5-5--5-5-5-5--5-5-1--1-1-1--1-1--1-1-1-1--|
A |-5--5-5-5--5-5--5-5-5-5--5-5-1--1-1-1--1-1--1-1-1-1--|
     pm------------------------  pm-----------------

Repeat Verse

Pre-Chorus:
Both Guitars
B |------------------------------------------------------------|
F#|------------------------------------------------------------|
D |------------------------------------------------------------|
A |------------------------------------------------------------|
E |------------------------------------------------------------|
A |-1-0-------------------------------1-0----------------------|
  pm---                             pm---

B |---------------------------------------------------------------------------------|
F#|---------------------------------------------------------------------------------|
D |---------------------------------------------------------------------------------|
A |-1-0--0-0-0-0--0-0-0-0--0-0-0-0--1-0---1-0--0-0-0-0--0-0-0-0-0-0-0--0-0-0-0-0-1--|
E |-1-0--0-0-0-0--0-0-0-0--0-0-0-0--1-0---1-0--0-0-0-0--0-0-0-0-0-0-0--0-0-0-0-0-1--|
A |-1-0--0-0-0-0--0-0-0-0--0-0-0-0--1-0---1-0--0-0-0-0--0-0-0-0-0-0-0--0-0-0-0-0-1--|
       pm-------------------------          pm------------------------------------

B |--------------------------------------------------------------------------------------|
F#|--------------------------------------------------------------------------------------|
D |--------------------------------------------------------------------------------------|
A |-1-0--0-0-0-0--0-0-0-0--0-0-0-0--1-0---1-0--0-0-0-0--0-0-0-0-0-0-0---3-3-3-3-4-4-4-4--|
E |-1-0--0-0-0-0--0-0-0-0--0-0-0-0--1-0---1-0--0-0-0-0--0-0-0-0-0-0-0---3-3-3-3-4-4-4-4--|
A |-1-0--0-0-0-0--0-0-0-0--0-0-0-0--1-0---1-0--0-0-0-0--0-0-0-0-0-0-0---3-3-3-3-4-4-4-4--|
       pm-------------------------           pm----------------------------------------

Guitar 1
B |-----------------------------------------------------------------------------------------------------|
F#|-----------------------------------------------------------------------------------------------------|
D |------------------------------------------------------------------------------------------------5-7--|
A |-------5-7--------7-8--------5-7--7-8-7-5-7-5------------5-7--------7-8--------5-7--------5-7-8------|
E |----------------------------------------------8-7-----------------------------------5-7-8------------|
A |-5-5-5------5-5-5------5-5-5-----------------------0-0-0------0-0-0------0-0-0-----------------------|
  pm-----    pm-----    pm-----                     pm-----    pm-----    pm-----
Guitar 2
B |----------------------------------------------------------------------------------------------------------|
F#|----------------------------------------------------------------------------------------------------------|
D |----------------------------------------------------------------------------------------------------8-10--|
A |-------5-7--------7-8--------5-7--7-8-7-5-7-5------------5-7--------7-8--------5-7----------8-10-12-------|
E |----------------------------------------------8-7-----------------------------------8-10-12---------------|
A |-5-5-5------5-5-5------5-5-5-----------------------0-0-0------0-0-0------0-0-0----------------------------|
  pm-----    pm-----    pm-----                     pm-----    pm-----    pm-----

Repeat Chorus

Guitar 1
B |-----------------------------------------------------------|
F#|-----------------------------------------------------------|
D |-----------------------------------------------------------|
A |-5-5-5-5-5-5-5-5-5-8-8-8-1-1-1-1-1-1-1-1-1-3-3-3-3-4-4-4-4-|
E |-5-5-5-5-5-5-5-5-5-8-8-8-1-1-1-1-1-1-1-1-1-3-3-3-3-4-4-4-4-|
A |-5-5-5-5-5-5-5-5-5-8-8-8-1-1-1-1-1-1-1-1-1-3-3-3-3-4-4-4-4-|

B |-----------------------------------------------------------|
F#|-----------------------------------------------------------|
D |-----------------------------------------------------------|
A |-5-5-5-5-5-5-5-5-5-8-8-8-1-1-1-1-1-1-1-1-1-1-1-1-1-1-1-1-1-|
E |-5-5-5-5-5-5-5-5-5-8-8-8-1-1-1-1-1-1-1-1-1-1-1-1-1-1-1-1-1-|
A |-5-5-5-5-5-5-5-5-5-8-8-8-1-1-1-1-1-1-1-1-1-1-1-1-1-1-1-1-1-|

Guitar 2(2x)
B |-------------------------|
F#|-------------------------|
D |-15-----17-----19-----17-|
A |-------------------------|
E |-13-----15-----17-----15-|
A |-------------------------|
Don't really feel like figuring out how many times to play each chord so learn the timing yourself xD
Ending
B |-------------------------------------------|
F#|-------------------------------------------|
D |-------------------------------------------|
A |-------------------------------------------|
E |-------------------------------------------|
A |-0-0-0-let-ring-----------------0-let-ring-|
Добавлено: 30.10.2014
Другие материалы по этой песне:

Страница создана 25.08.2014
http://primanota.ru/upon-a-burning-body/red-razor-wrists-chords.htm
Привет, Гость.
Предлагаем пройти революционный курс по гитаре.
Подарок от PrimaNota.Ru, забирай!