PrimaNota.ru - самый крупный в мире бесплатный архив песенных текстов, аккордов, табулатур и нот


Upon A Burning Body - The New Breed - таба, видео

Регистрация Запомнить меня
Войти через:  Facebook Google Twitter Vk Yandex Mail.ru

Upon A Burning Body - The New Breed - таба, видео

Печатать
Просмотров: 140
Уроки эстрадного вокала в Санкт-Петербурге
-------------------------------------------------------------------------------
                             The New Breed - Upon A Burning Body
-------------------------------------------------------------------------------
Tabbed by: GuitarMan0182
Email: tylertisi80@gmail.com 

Tuning:A E A D F# B

New song off of The World Is My Enemy Now
Please rate for more!



  Guitar 1: Lead
   Intro
B |---------------------------------------------------------------------------|
F#|---------------------------------------------------------------------------|
D |---------------------------------------------------------------------------|
A |---------------------------------------------------------------------------|
E |8b--5-3-5b--5b-5b-5b-5b-5b-0-7-8b--5-3-5b-5b5b5b-3-2-0--2-3-0--------------|
A |--------------------------------------------------------------3-5-3--2-0---|


B |---------------------------------------------------------------------------|
F#|---------------------------------------------------------------------------|
D |---------------------------------------------------------------------------|
A |---------------------------------------------------------------------------|
E |000-0-0-0-0-3-5-333-5b-5b-5b-5b-0-7-8b-5-3-5b-5b5b5b-3-2-0--2-3-0----------|
A |000-0-0-0-0-3-5--------------------------------------------------3-5-3-2-0-|
   ... . . . . . . 
     

B |---------------------------------------------------------------------------|
F#|-10b--13-10-8h10p8-6--8-6-4--10b-13-10-8h9p8-------------------------------|
D |-10b-------------------------10b-------------10b---------------------------|
A |---------------------------------------------------------------------------|
E |---------------------------------------------------------------------------|
A |---------------------------------------------------------------------------|

B |---------------------------------------------------------------------------|
F#|-10b--13-10-8h10p8-6--8-6-4--10b-13-10-8h9p8-------------------------------|
D |-10b-------------------------10b-------------10-8-7------------------------|
A |----------------------------------------------------9-7-6------------------|
E |----------------------------------------------------------8-6-5/3\5--------|
A |---------------------------------------------------------------------------|
                                               . . .  . . .  . . . . . 



  Guitar 2: Rythem
   Repeat 4x
B |---------------------------------------------------------------------------|
F#|---------------------------------------------------------------------------|
D |---------------------------------------------------------------------------|
A |---------------------------------------------------------------------------|
E |000-0-0-0-0--3-5-333-000-0-0-0-0--3-5-3-2-3-0------------------------------|
A |000-0-0-0-0--3-5-333-000-0-0-0-0--3-5-3-2-3-0------------------------------|
   ... . . . .  . . ... ... . . . .  . . . . . .

   4th Time
B |---------------------------------------------------------------------------|
F#|---------------------------------------------------------------------------|
D |---------------------------------------------------------------------------|
A |---------------------------------------------------------------------------|
E |000-0-0-0-0-3-5-333-000-0-0-0-0-3-5-3-2-3-2-1-0----------------------------|
A |000-0-0-0-0-3-5-333-000-0-0-0-0-3-5-3-2-3-2-1-0----------------------------|
   ... . . . . . . ... ... . . . . . . . . . . . .






  Guitar 1: Plays Verse 4x 
  Guitar 2: Plays Verse 2x

   Verse
B |---------------------------------------------------------------------------|
F#|---------------------------------------------------------------------------|
D |---------------------------------------------------------------------------|
A |---------------------------------------------------------------------------|
E |000-----000-----000----000----------000-----787-5-7-5-3--------------------|
A |000-0~--000-12--000-0~-000-10-12-10-000-0~--787-5-7-5-3--------------------|
   ...     ...     ...    ...          ...     ... . . . .


  Guitar 2: Delay
  
    Repeat 3x
B |---17-20b--17-19b--17--16--15b---------------------------------------------|
F#|-17------17------17--17--17---17*------------------------------------------|
D |---------------------------------------------------------------------------|
A |---------------------------------------------------------------------------|
E |---------------------------------------------------------------------------|
A |---------------------------------------------------------------------------|


 Guitar: 1
  Pre-Chorus
B |---------------------------------------------------------------------------|
F#|---------------------------------------------------------------------------|
D |---------------------------------------------------------------------------|
A |---------------------------------------------------------------------------|
E |-00000-0-----33333-3-0---00000-0----------000000-----------333333-3-0-3*---|
A |-00000-0-----33333-3-0---00000-0----------000000-0-0-0-----333333-3-0------|
    .....       .....       .....            ......           ......

 Guitar: 2

B |---------------------------------------------------------------------------|
F#|---------------------------------------------------------------------------|
D |---------------------------------------------------------------------------|
A |---------------------------------------------------------------------------|
E |------------------------------------------------------------333333-3-0-----|
A |0000000000000000000000000000000000000000000000000000000000--333333-3-0-----|
                                                               ...... . .




 Chorus
  Guitar: 1 Lead
   Repeat 4x
B |---------------------------------------------------------------------------|
F#|-10b--13-10-8h10p8-6--8-6-4--10b-13-10-8h9p8-------------------------------|
D |-10b-------------------------10b-------------10b---------------------------|
A |---------------------------------------------------------------------------|
E |---------------------------------------------------------------------------|
A |---------------------------------------------------------------------------|

B |---------------------------------------------------------------------------|
F#|-10b--13-10-8h10p8-6--8-6-4--10b-13-10-8h9p8-------------------------------|
D |-10b-------------------------10b-------------10-8-7------------------------|
A |----------------------------------------------------9-7-6------------------|
E |----------------------------------------------------------8-6-5/3\5--------|
A |---------------------------------------------------------------------------|
                                               . . .  . . .  . . . . . 


 Guitar 2: Rythem
   Repeat 8x
B |---------------------------------------------------------------------------|
F#|---------------------------------------------------------------------------|
D |---------------------------------------------------------------------------|
A |---------------------------------------------------------------------------|
E |000-0-0-0-0--3-5-333-000-0-0-0-0--3-5-3-2-3-0------------------------------|
A |000-0-0-0-0--3-5-333-000-0-0-0-0--3-5-3-2-3-0------------------------------|
   ... . . . .  . . ... ... . . . .  . . . . . .

   4th and 8th time
B |---------------------------------------------------------------------------|
F#|---------------------------------------------------------------------------|
D |---------------------------------------------------------------------------|
A |---------------------------------------------------------------------------|
E |000-0-0-0-0-3-5-333-000-0-0-0-0-3-5-3-2-3-2-1-0----------------------------|
A |000-0-0-0-0-3-5-333-000-0-0-0-0-3-5-3-2-3-2-1-0----------------------------|
   ... . . . . . . ... ... . . . . . . . . . . . .

  




  Guitar 1: Plays Verse 2x 
  Guitar 2: Plays Verse 2x

   Verse
B |---------------------------------------------------------------------------|
F#|---------------------------------------------------------------------------|
D |---------------------------------------------------------------------------|
A |---------------------------------------------------------------------------|
E |000-----000-----000----000----------000-----787-5-7-5-3--------------------|
A |000-0~--000-12--000-0~-000-10-12-10-000-0~--787-5-7-5-3--------------------|
   ...     ...     ...    ...          ...     ... . . . .



 Guitar: 1 and 2 
  
   Pre-Chorus 2x
B |---------------------------------------------------------------------------|
F#|---------------------------------------------------------------------------|
D |---------------------------------------------------------------------------|
A |---------------------------------------------------------------------------|
E |-00000-000--0-0------00000-000--0-0--00000-000--0-0------------------------|
A |-00000-000--0-0------00000-000--0-0--00000-000--0-0------------------------|
    ..... ...  . .      ..... ...  . .  ..... ...  . .






Guitar 1: Lead
   Chorus
B |---------------------------------------------------------------------------|
F#|---------------------------------------------------------------------------|
D |---------------------------------------------------------------------------|
A |---------------------------------------------------------------------------|
E |8b--5-3-5b--5b-5b-5b-5b-5b-0-7-8b--5-3-5b-5b5b5b-3-2-0--2-3-0--------------|
A |--------------------------------------------------------------3-5-3--2-0---|
     

   Repeat 2x
B |---------------------------------------------------------------------------|
F#|-10b--13-10-8h10p8-6--8-6-4--10b-13-10-8h9p8-------------------------------|
D |-10b-------------------------10b-------------10b---------------------------|
A |---------------------------------------------------------------------------|
E |---------------------------------------------------------------------------|
A |---------------------------------------------------------------------------|

B |---------------------------------------------------------------------------|
F#|-10b--13-10-8h10p8-6--8-6-4--10b-13-10-8h9p8-------------------------------|
D |-10b-------------------------10b-------------10-8-7------------------------|
A |----------------------------------------------------9-7-6------------------|
E |----------------------------------------------------------8-6-5/3\5--------|
A |---------------------------------------------------------------------------|
                                               . . .  . . .  . . . . . 



  Guitar 2: Rythem
   Repeat 4x  1st time and 3rd time
B |---------------------------------------------------------------------------|
F#|---------------------------------------------------------------------------|
D |---------------------------------------------------------------------------|
A |---------------------------------------------------------------------------|
E |000-0-0-0-0--3-5-333-000-0-0-0-0--3-5-3-2-3-0------------------------------|
A |000-0-0-0-0--3-5-333-000-0-0-0-0--3-5-3-2-3-0------------------------------|
   ... . . . .  . . ... ... . . . .  . . . . . .

   2nd time and 4th time
B |---------------------------------------------------------------------------|
F#|---------------------------------------------------------------------------|
D |---------------------------------------------------------------------------|
A |---------------------------------------------------------------------------|
E |000-0-0-0-0-3-5-333-000-0-0-0-0-3-5-3-2-3-2-1-0----------------------------|
A |000-0-0-0-0-3-5-333-000-0-0-0-0-3-5-3-2-3-2-1-0----------------------------|
   ... . . . . . . ... ... . . . . . . . . . . . .




************************************

| /   slide up
| \   slide down
| h   hammer-on
| p   pull-off
| *   pinch harmonic
| b   Bend

************************************

Добавлено: 19.09.2014
Другие материалы по этой песне:
  • Аккорды и текст

Страница создана 19.09.2014
http://primanota.ru/upon-a-burning-body/new-breed-chords.htm
Привет, Гость.
Предлагаем пройти революционный курс по гитаре.
Подарок от PrimaNota.Ru, забирай!