PrimaNota.ru - самый крупный в мире бесплатный архив песенных текстов, аккордов, табулатур и нот


Upon A Burning Body - Middle Finger To The World - таба, видео

Регистрация Запомнить меня
Войти через:  Facebook Google Twitter Vk Yandex Mail.ru

Upon A Burning Body - Middle Finger To The World - таба, видео

Печатать
Просмотров: 110
----------------------------------------------------------------------------------------------------------
|                             UPON A BURNING BODY - MIDDLE FINGER TO THE WORLD                           |
|                                  Album: The World is my Enemy Now (2014)                               |
----------------------------------------------------------------------------------------------------------

                   If you have questions or corrections feel free to send me a message:
                                http://profile.ultimate-guitar.com/godspeedy/
                                    https://www.facebook.com/Godspeedy14
                     
                Also, check out my Youtube channel: http://www.youtube.com/user/Godspeedy14

                                        Tuning: 7 string AEADGBE
                                                    
*********************************************GUITAR NOTATIONS*********************************************
*                                                                                                        *
*                                      | *   palm mute           |                                       *
*                                      | s\  slide downwards     |                                       *
*                                      | p   pull-off            |                                       *
*                                      | ~   vibrato             |                                       *
*                                                                                                        *
**********************************************************************************************************

----------------------------------------------------------------------------------------------------------
|                                          INTRO (00:00-00:38)                                           |
----------------------------------------------------------------------------------------------------------

I. Guitar 1 (w/ dist)

E|------------------------|------------------------|------------------------|------------------------|
B|------------------------|------------------------|------------------------|------------------------|
G|------------------------|------------------------|------------------------|------------------------|
D|------------------------|------------------------|------------------------|------------------------|
A|------------------------|------------------------|------------------------|------------------------|
E|------------------------|------------------------|------------------------|------------------------|
A|-3--2--1--0--0--0--0--0-|-3--2--1--0--0--0--0--0-|-3--2--1--0--0--0--0--0-|-1--0--0--3--0--3--2--1-|
               *  *  *  *               *  *  *  *               *  *  *  *      *  *     * 
E|------------------------|------------------------|------------------------|
B|------------------------|------------------------|------------------------|
G|------------------------|------------------------|------------------------|
D|------------------------|------------------------|------------------------|
A|------------------------|------------------------|------------------------|
E|------------------------|------------------------|------------------------|
A|-3--2--1--0--0--0--0--0-|-3--2--1--0--0--0--0--0-|-3--2--1--0--0--0--0--0-|
               *  *  *  *               *  *  *  *               *  *  *  *

II. Guitars 1 and 2 (w/ dist)

E|----------------------------|
B|----------------------------|
G|----------------------------|
D|----------------------------|
A|-1------1------1------1-----|
E|-1------1------1------1-----|
A|-1------1------1------1-----|

E|------------------------|------------------------|------------------------|------------------------|
B|------------------------|------------------------|------------------------|------------------------|
G|------------------------|------------------------|------------------------|------------------------|
D|------------------------|------------------------|------------------------|------------------------| x4
A|-3--2--1--0-------------|-3--2--1--0-------------|-3--2--1--0-------------|-1--------3-----3--2--1-|
E|-3--2--1--0--0--0--0--0-|-3--2--1--0--0--0--0--0-|-3--2--1--0--0--0--0--0-|-1--0--0--3--0--3--2--1-|
A|-3--2--1--0--0--0--0--0-|-3--2--1--0--0--0--0--0-|-3--2--1--0--0--0--0--0-|-1--0--0--3--0--3--2--1-|
               *  *  *  *               *  *  *  *               *  *  *  *      *  *     * 

III. Guitar 1 (w/ dist)

E|---------------------------------|---------------------------------|---------------------------------|
B|---------------------------------|---------------------------------|---------------------------------|
G|---------------------------------|---------------------------------|---------------------------------|
D|---------------------------------|---------------------------------|---------------------------------|
A|-0-0-0-0-0-0-0-0-0-0-0-0-0-0-0-0-|-0-0-0-0-0-0-0-0-0-0-0-0-0-0-0-0-|-0-0-0-0-0-0-0-0-0-0-0-0-0-0-0-0-|
E|-8-8-8-8-8-8-8-8-8-8-8-8-8-8-8-8-|-8-8-8-8-8-8-8-8-4-4-4-4-4-4-4-4-|-1-1-1-1-1-1-1-1-1-1-1-1-1-1-1-1-|
A|---------------------------------|---------------------------------|---------------------------------|

IV. Guitars 1 and 2 (w/ dist)

E|------------------------|
B|------------------------|
G|------------------------|
D|------------------------|
A|-3-----------2--2-h3-p2-|
E|-3--3--3--3--2--2-h3-p2-|
A|-3--3--3--3--2--2-h3-p2-|
      *  *  * 

----------------------------------------------------------------------------------------------------------
|                                          VERSE (00:38-01:03)                                           |
----------------------------------------------------------------------------------------------------------

I. Guitar 1 (w/ dist)
                                                     --------|
E|---------------------------|--------------------------|    |
B|---------------------------|--------------------------|    |
G|---------------------------|--------------------------|    |
D|---------------------------|--------------------------|    |
A|---------------------------|--------------------------|    |
E|---------------------------|--------------------------|    |
A|-0-0-0--0-0-0--0-0-0--0--0-|-0--0--0--0--0-0-0--0-0-0-|    |
   * * *  * * *  * * *  *      *  *  *  *  * * *  * * *      | x2
E|---------------------------|----------------------|        |
B|---------------------------|----------------------|        |
G|---------------------------|----------------------|        |
D|---------------------------|----------------------|        | 
A|-------------------------4-|--4--4--4--4----------|        |
E|-------------------------4-|--4--4--4--4--1--1--1-|        |
A|-0-0-0--0-0-0--0-0-0--0--4-|--4--4--4--4--1--1--1-|        |
   * * *  * * *  * * *  *                   *  *  *          |
                                                     --------|

   Guitar 2 (w/ dist)

                                                     --------|
E|---------------------------|--------------------------|    |
B|---------------------------|--------------------------|    |
G|---------------------------|--------------------------|    |
D|---------------------------|--------------------------|    |
A|---------------------------|--------------------------|    |
E|---------------------------|--------------------------|    |
A|-0-0-0--0-0-0--0-0-0-------|--------------------------|    |
   * * *  * * *  * * *                                       | x2
E|---------------------------|----------------------|        |
B|---------------------------|----------------------|        |
G|---------------------------|----------------------|        |
D|---------------------------|----------------------|        | 
A|-------------------------4-|--4--4--4--4----------|        |
E|-------------------------4-|--4--4--4--4--1--1--1-|        |
A|-0-0-0--0-0-0--0-0-0--0--4-|--4--4--4--4--1--1--1-|        |
   * * *  * * *  * * *  *                   *  *  *          |
                                                     --------|

II. Guitars 1 and 2 (w/ dist)

E|------------------------|--------------------------|------------------------|----------------------|
B|------------------------|--------------------------|------------------------|----------------------|
G|------------------------|--------------------------|------------------------|----------------------|
D|------------------------|--------------------------|------------------------|----------------------| x2
A|------------------------|--------------------------|------------------------|----------------------|
E|-5-----7-----8----------|--------------------------|-5-----7-----8--------5-|--5--5--5--5--2--2--2-|
A|----0-----0-----0--0--0-|-0--0--0--0--0-0-0--0-0-0-|----0-----0-----0--0--8-|--8--8--8--8--5--5--5-|
      *     *     *  *      *  *  *  *  * * *  * * *      *     *     *  * 
E|------------------------|------------|
B|------------------------|------------|
G|------------------------|------------|
D|------------------------|------------|
A|------------------------|------------|
E|-4--4--4--4--4--4--4--4-|-4----------|
A|-7--7--7--7--7--7--7--7-|-7----------|

III. Guitar 1 (w/ dist)

E|------------------------|
B|------------------------|
G|------------------------|
D|----------------------6-|
A|-7-----5--7--5-----7----|
E|----8-----------8-------|
A|------------------------|
                                     
----------------------------------------------------------------------------------------------------------
|                                          CHORUS (01:03-01:25)                                          |
----------------------------------------------------------------------------------------------------------

Guitars 1 and 2 (w/ dist)

E|------------------------|------------------------|------------------------|------------------------|
B|------------------------|------------------------|------------------------|------------------------|
G|------------------------|------------------------|------------------------|------------------------|
D|------------------------|------------------------|------------------------|------------------------|
A|-8--8--8--8--8--8--8--8-|-8--8--8--8--8--8--8--8-|-5--5--5--5--5--5--5--5-|-5--5--5--5--5--5--5--5-|
E|-8--8--8--8--8--8--8--8-|-8--8--8--8--8--8--8--8-|-5--5--5--5--5--5--5--5-|-5--5--5--5--5--5--5--5-|
A|-8--8--8--8--8--8--8--8-|-8--8--8--8--8--8--8--8-|-5--5--5--5--5--5--5--5-|-5--5--5--5--5--5--5--5-|

E|------------------------|----------------------|------------------------|------------------------|
B|------------------------|----------------------|------------------------|------------------------|
G|------------------------|----------------------|------------------------|------------------------|
D|------------------------|----------------------|------------------------|------------------------|
A|-7-p0-----7-p0----------|-------------8--7-----|-7-p0-----7-p0--------7-|----7--------10--8------|
E|------------------------|-------------------8~~|~---------------------7-|----7---------------7~~~|
A|-------0--------0--0--0-|-0--0--0--0-----------|-------0--------0--0--7-|-7--7--7--7-------------|
         *        *  *      *     *  *                   *        *  *      *     *  *       
E|------------------------|------------------------|------------------------|------------------------|
B|------------------------|------------------------|------------------------|------------------------|
G|------------------------|------------------------|------------------------|------------------------|
D|------------------------|------------------------|------------------------|------------------------|
A|-8--8--8--8--8--8--8--8-|-8--8--8--8--8--8--8--8-|-5--5--5--5--5--5--5--5-|-5--5--5--5--5--5--5--5-|
E|-8--8--8--8--8--8--8--8-|-8--8--8--8--8--8--8--8-|-5--5--5--5--5--5--5--5-|-5--5--5--5--5--5--5--5-|
A|-8--8--8--8--8--8--8--8-|-8--8--8--8--8--8--8--8-|-5--5--5--5--5--5--5--5-|-5--5--5--5--5--5--5--5-|

E|------------------------|----------------------|------------------------|---------------------------|
B|------------------------|----------------------|------------------------|---------------------------|
G|------------------------|----------------------|------------------------|---------------------------|
D|------------------------|----------------------|------------------------|---------------------------|
A|-7-p0-----7-p0----------|-------------8--7-----|-7-p0-----7-p0----------|---------------------------|
E|------------------------|-------------------8~~|~-----------------------|-7--8--10--8--7--8--7------|
A|-------0--------0--0--0-|-0--0--0--0-----------|-------0--------0--0--0-|-----------------------10--|
         *        *  *      *     *  *                   *        *  *  *    

----------------------------------------------------------------------------------------------------------
|                                         VERSE 2 (01:25-01:47)                                          |
----------------------------------------------------------------------------------------------------------

I. Guitar 1 (w/ dist)
                                                     --------|
E|---------------------------|--------------------------|    |
B|---------------------------|--------------------------|    |
G|---------------------------|--------------------------|    |
D|---------------------------|--------------------------|    |
A|---------------------------|--------------------------|    |
E|---------------------------|--------------------------|    |
A|-0-0-0--0-0-0--0-0-0--0--0-|-0--0--0--0--0-0-0--0-0-0-|    |
   * * *  * * *  * * *  *      *  *  *  *  * * *  * * *      | x2
E|---------------------------|----------------------|        |
B|---------------------------|----------------------|        |
G|---------------------------|----------------------|        |
D|---------------------------|----------------------|        | 
A|-------------------------4-|--4--4--4--4----------|        |
E|-------------------------4-|--4--4--4--4--1--1--1-|        |
A|-0-0-0--0-0-0--0-0-0--0--4-|--4--4--4--4--1--1--1-|        |
   * * *  * * *  * * *  *                   *  *  *          |
                                                     --------|

   Guitar 2 (w/ dist)

                                                     --------|
E|---------------------------|--------------------------|    |
B|---------------------------|--------------------------|    |
G|---------------------------|--------------------------|    |
D|---------------------------|--------------------------|    |
A|---------------------------|--------------------------|    |
E|---------------------------|--------------------------|    |
A|-0-0-0--0-0-0--0-0-0-------|--------------------------|    |
   * * *  * * *  * * *                                       | x2
E|---------------------------|----------------------|        |
B|---------------------------|----------------------|        |
G|---------------------------|----------------------|        |
D|---------------------------|----------------------|        | 
A|-------------------------4-|--4--4--4--4----------|        |
E|-------------------------4-|--4--4--4--4--1--1--1-|        |
A|-0-0-0--0-0-0--0-0-0--0--4-|--4--4--4--4--1--1--1-|        |
   * * *  * * *  * * *  *                   *  *  *          |
                                                     --------|

II. Guitars 1 and 2 (w/ dist)

E|------------------------|--------------------------|------------------------|----------------------|
B|------------------------|--------------------------|------------------------|----------------------|
G|------------------------|--------------------------|------------------------|----------------------|
D|------------------------|--------------------------|------------------------|----------------------|
A|------------------------|--------------------------|------------------------|----------------------|
E|-5-----7-----8----------|--------------------------|-5-----7-----8--------5-|--5--5--5--5--2--2--2-|
A|----0-----0-----0--0--0-|-0--0--0--0--0-0-0--0-0-0-|----0-----0-----0--0--8-|--8--8--8--8--5--5--5-|
      *     *     *  *      *  *  *  *  * * *  * * *      *     *     *  * 
E|------------------------|--------------------------|------------------------|----------------------|
B|------------------------|--------------------------|------------------------|----------------------|
G|------------------------|--------------------------|------------------------|----------------------|
D|------------------------|--------------------------|------------------------|----------------------|
A|------------------------|--------------------------|----------------------0-|---------0--------7s\-|
E|-5-----7-----8----------|--------------------------|-5-----7-----8--------0-|---------0--------7s\-|
A|----0-----0-----0--0--0-|-0--0--0--0--0-0-0--0-0-0-|----0-----0-----0--0--0-|---0--0--0-----0--7s\-|
      *     *     *  *      *  *  *  *  * * *  * * *      *     *     *  *        *  *        *

----------------------------------------------------------------------------------------------------------
|                                          BRIDGE (01:47-02:22)                                          |
----------------------------------------------------------------------------------------------------------

I. Guitar 1 (w/ dist and phaser)

E|------------------------|------------------------|------------------------|------------------------|
B|------------------------|------------------------|------------------------|------------------------|
G|------------------------|------------------------|------------------------|------------------------|
D|------------------------|------------------------|------------------------|------------------------|
A|------------------------|------------------------|------------------------|------------------------|
E|------------------------|------------------------|------------------------|------------------------|
A|-3--2--1--0--0--0--0--0-|-3--2--1--0--0--0--0--0-|-3--2--1--0--0--0--0--0-|-1--0--0--3--0--3--2--1-|
               *  *  *  *               *  *  *  *               *  *  *  *      *  *     * 
E|------------------------|------------------------|------------------------|
B|------------------------|------------------------|------------------------|
G|------------------------|------------------------|------------------------|
D|------------------------|------------------------|------------------------|
A|------------------------|------------------------|------------------------|
E|------------------------|------------------------|------------------------|
A|-3--2--1--0--0--0--0--0-|-3--2--1--0--0--0--0--0-|-3--2--1--0--0--0--0--0-|
               *  *  *  *               *  *  *  *               *  *  *  *

II. Guitars 1 and 2 (w/ dist)

E|---------------------|
B|---------------------|
G|---------------------|
D|---------------------|
A|------------------0--|
E|------0--0--0--0--0--|
A|------0--0--0--0--0--|
        *  *  *  *   
E|-----------------------|-------------------------|--------------------|---------------------|
B|-----------------------|-------------------------|--------------------|---------------------|
G|-----------------------|-------------------------|--------------------|---------------------|
D|-----------------------|-------------------------|--------------------|---------------------|
A|-3--2--1--0-------3--2-|-1--0--------------------|----3--2--1--0------|---------------------|
E|-3--2--1--0-------3--2-|-1--0-------0-0-0--0-0-0-|----3--2--1--0------|-0-0-0--0--0---0--0--|
A|-3--2--1--0-------3--2-|-1--0-------0-0-0--0-0-0-|----3--2--1--0------|-1-1-1--1--1---1--1--|
                                      * * *  * * *                        * * *  *  *   *  *
E|-----------------------|-------------------------|--------------------|------------------------|
B|-----------------------|-------------------------|--------------------|------------------------|
G|-----------------------|-------------------------|--------------------|------------------------|
D|-----------------------|-------------------------|--------------------|------------------------|
A|-3--2--1--0-------3--2-|-1--0--------------------|----3--2--1--0------|-1--------1--------1-p0-|
E|-3--2--1--0-------3--2-|-1--0-------0-0-0--0-0-0-|----3--2--1--0------|-1--0--0--1--0--0--1-p0-|
A|-3--2--1--0-------3--2-|-1--0-------0-0-0--0-0-0-|----3--2--1--0------|-1--0--0--1--0--0--1-p0-|
                                      * * *  * * *                           *  *     *  *
E|-----------------------|-------------------------|--------------------|---------------------|
B|-----------------------|-------------------------|--------------------|---------------------|
G|-----------------------|-------------------------|--------------------|---------------------|
D|-----------------------|-------------------------|--------------------|---------------------|
A|-3--2--1--0-------3--2-|-1--0--------------------|----3--2--1--0------|---------------------|
E|-3--2--1--0-------3--2-|-1--0-------0-0-0--0-0-0-|----3--2--1--0------|-0-0-0--0--0---0--0--|
A|-3--2--1--0-------3--2-|-1--0-------0-0-0--0-0-0-|----3--2--1--0------|-1-1-1--1--1---1--1--|
                                      * * *  * * *                        * * *  *  *   *  *
E|-----------------------|-------------------------|--------------------|----------------------|
B|-----------------------|-------------------------|--------------------|----------------------|
G|-----------------------|-------------------------|--------------------|----------------------|
D|-----------------------|-------------------------|--------------------|----------------------|
A|-3--2--1--0-------3--2-|-1--0--------------------|----3--2--1--0------|-1--------1--------1--|
E|-3--2--1--0-------3--2-|-1--0-------0-0-0--0-0-0-|----3--2--1--0------|-1--0--0--1--0--0--1--|
A|-3--2--1--0-------3--2-|-1--0-------0-0-0--0-0-0-|----3--2--1--0------|-1--0--0--1--0--0--1--|
                                      * * *  * * *                           *  *     *  *

----------------------------------------------------------------------------------------------------------
|                                         CHORUS 2 (02:22-02:50)                                         |
----------------------------------------------------------------------------------------------------------
                                             same as CHORUS
----------------------------------------------------------------------------------------------------------
|                                          OUTRO (02:50-03:44)                                           |
----------------------------------------------------------------------------------------------------------

Guitars 1 and 2 (w/ dist)

E|------------------------|
B|------------------------|
G|------------------------|
D|------------------------| x4
A|------------------------|
E|------------------------|
A|-0--0--0--0--0--0--0--0-|

E|------------------------|
B|------------------------|
G|------------------------|
D|------------------------| x2
A|-8--8--8--8--8--8--8--8-|
E|-8--8--8--8--8--8--8--8-|
A|-8--8--8--8--8--8--8--8-|

E|------------------------|
B|------------------------|
G|------------------------|
D|------------------------| x2
A|-5--5--5--5--5--5--5--5-|
E|-5--5--5--5--5--5--5--5-|
A|-5--5--5--5--5--5--5--5-|

E|------------------------|
B|------------------------|
G|------------------------|
D|------------------------| x4
A|------------------------|
E|------------------------|
A|-0--0--0--0--0--0--0--0-|

                     -------------|
E|------------------------|       |
B|------------------------|       |
G|------------------------|       |
D|------------------------| x2    |
A|-8--8--8--8--8--8--8--8-|       |
E|-8--8--8--8--8--8--8--8-|       |
A|-8--8--8--8--8--8--8--8-|       | 
                                  |
E|------------------------|       |
B|------------------------|       | 
G|------------------------|       |
D|------------------------| x2    | x3
A|-5--5--5--5--5--5--5--5-|       |
E|-5--5--5--5--5--5--5--5-|       |
A|-5--5--5--5--5--5--5--5-|       |
                                  |
E|------------------------|       |
B|------------------------|       |
G|------------------------|       |
D|------------------------| x4    |
A|------------------------|       |
E|------------------------|       |
A|-0--0--0--0--0--0--0--0-|       |
                     -------------|

Guitar 3 (w/ dist and delay)

E|------------------------------|---------------------------|
B|------------------------------|---------------------------|
G|-9----------9----------12-----|-----10----------10--9--5~~| 
D|----10--12-----10--12------10-|-12------10--12------------| x2
A|------------------------------|---------------------------|
E|------------------------------|---------------------------|
A|------------------------------|---------------------------|
      *   *      *   *       *    *       *   *
E|------------------------|------------------------|------------------------|------------------------|
B|------------------------|------------------------|------------------------|------------------------|
G|------------------------|------------------------|------------------------|-5--5--5--5--4--4--4--4-|
D|-7--7--7--7--7--7--7--7-|-9--9--9--9--9--9--9--9-|-7--7--7--7--7--7--7--7-|------------------------|
A|------------------------|------------------------|------------------------|------------------------|
E|------------------------|------------------------|------------------------|------------------------|
A|------------------------|------------------------|------------------------|------------------------|
                            *  *  *  *  *  *  *  *
E|------------------------------|---------------------------|
B|------------------------------|---------------------------|
G|-9----------9----------12-----|-----10----------10--9--5~~| 
D|----10--12-----10--12------10-|-12------10--12------------| x2
A|------------------------------|---------------------------|
E|------------------------------|---------------------------|
A|------------------------------|---------------------------|
      *   *      *   *       *    *       *   *


Добавлено: 01.10.2015
Другие материалы по этой песне:

Страница создана 04.09.2015
http://primanota.ru/upon-a-burning-body/middle-finger-to-world-chords.htm
Привет, Гость.
Предлагаем пройти революционный курс по гитаре.
Подарок от PrimaNota.Ru, забирай!