PrimaNota.ru - самый крупный в мире бесплатный архив песенных текстов, аккордов, табулатур и нот


Upon A Burning Body - Judgement - таба, видео

Регистрация Запомнить меня
Войти через:  Facebook Google Twitter Vk Yandex Mail.ru

Upon A Burning Body - Judgement - таба, видео

Печатать
Просмотров: 113
-----------------------------------------------------------------------------------------
|                          UPON A BURNING BODY - JUDGEMENT (SOLO)                       |
|                         Album: The World is my Enemy Now (2014)                       |
-----------------------------------------------------------------------------------------
           If you have questions or corrections feel free to send me a message:
                        http://profile.ultimate-guitar.com/godspeedy/
                           https://www.facebook.com/Godspeedy14
                           
        Also, check out my Youtube channel: http://www.youtube.com/user/Godspeedy14

                                  Tuning: 7 string AEADGBE 
                                                        
**************************************GUITAR NOTATIONS***********************************
*                                                                                       *
*                               | *   palm mute           |                             *
*                               | s   slide               |                             *
*                               | \s  slide in from above |                             *
*                               | /s  slide in from below |                             *
*                               | h   hammer-on           |                             *
*                               | p   pull-off            |                             *
*                               | ~   vibrato             |                             *
*                               | x   Mute note           |                             *
*                               | b   bend                |                             *
*                               | r   release             |                             *
*                                                                                       *
*****************************************************************************************

Guitars 1 and 2 (w/ dist) - RHYTHM GUITARS

E|---------------------------------|---------------------------------|
B|---------------------------------|---------------------------------|
G|---------------------------------|---------------------------------|
D|---------------------------------|---------------------------------|
A|---------------------------------|---------------------------------|
E|---------------------------------|---------------------------------|
A|-5-5-5-5-5-5-5-5-5-5-5-5-5-5-5-5-|-7-7-7-7-7-7-7-7-3-3-3-3-3-3-3-3-|
   * * * * * * * * * * * * * * * *   * * * * * * * * * * * * * * * *
E|---------------------------------|-------------------------------------------------|
B|---------------------------------|-------------------------------------------------|
G|---------------------------------|-------------------------------------------------|
D|---------------------------------|-------------------------------------------------|
A|---------------------------------|-------------------------------------------------|
E|---------------------------------|-------------------------------------------------|
A|-0-0-0-0-0-0-0-0-0-0-0-0-0-0-0-0-|-10-10-10-10-10-10-10-10-10-10-10-10-10-10-10-10-|
   * * * * * * * * * * * * * * * *   *  *  *  *  *  *  *  *  *  *  *  *  *  *  *  *
E|---------------------------------|---------------------------------|
B|---------------------------------|---------------------------------|
G|---------------------------------|---------------------------------|
D|---------------------------------|---------------------------------|
A|---------------------------------|---------------------------------|
E|---------------------------------|---------------------------------|
A|-5-5-5-5-5-5-5-5-5-5-5-5-5-5-5-5-|-7-7-7-7-7-7-7-7-3-3-3-3-3-3-3-3-|
   * * * * * * * * * * * * * * * *   * * * * * * * * * * * * * * * *
E|---------------------------------|---------------------|--------|--------|
B|---------------------------------|---------------------|--------|--------|
G|---------------------------------|---------------------|--------|--------|
D|---------------------------------|---------------------|--------|--------|
A|---------------------------------|-7---------7----3----|-0------|--------|
E|---------------------------------|-7---------7----3----|-0------|--------|
A|-7-7-7-7-7-7-7-7-7-7-7-7-7-7-7-7-|-7---------7----3----|-0------|--------|
   * * * * * * * * * * * * * * * *

Guitar 3 (w/ dist and delay) - SOLO

E|-------------------------------------------------|-------------------------------------------------|
B|-------------------------------------------------|-------------------------------------------------|
G|-------------------------------------------------|-------------------------------------------------|
D|-17-15-14----------------------14-15-14----------|-17-15-14----------------------14-15-14----------|
A|----------17-15-14----14-15-17----------17-15-14-|----------17-15-14----14-15-17----------17-15-14-|
E|-------------------17----------------------------|-------------------17----------------------------|
A|-------------------------------------------------|-------------------------------------------------|
   *  *  *  *  *  *  *  *  *  *  *        *  *  *    *  *  *  *  *  *  *  *  *  *  *        *  *  *
E|-------------------------------------------------|-------------------------------------------------|
B|-------------------------------------------------|-------------------------------------------------|
G|-17----------17----------17----------17----------|-19----------19----------19----------19----------|
D|----15-14-14----15-14-14----15-14-14----15-14-14-|----17-14-14----17-14-14----17-14-14----17-14-14-|
A|-------------------------------------------------|-------------------------------------------------|
E|-------------------------------------------------|-------------------------------------------------|
A|-------------------------------------------------|-------------------------------------------------|
      *  *  *     *  *  *     *  *  *     *  *  *       *  *  *     *  *  *     *  *  *     *  *  *
E|-------------------------------------------------|-------------------------------------------------|
B|-------------------------------------------------|-18-17-15----------------------15-17-15----------|
G|-21-19-17----------------------17-19-17----------|----------17-16-14----14-16-17----------17-16-14-|
D|----------21-19-17----17-19-21----------21-19-17-|-------------------17----------------------------|
A|-------------------20----------------------------|-------------------------------------------------|
E|-------------------------------------------------|-------------------------------------------------|
A|-------------------------------------------------|-------------------------------------------------|
            *  *  *  *  *  *  *           *  *  *       
E|-------------------------------------------------|-----------------------------|
B|-17----------17----------17----------17----------|-----------------------------|
G|----14-12-12----14-12-12----14-12-12----14-12-12-|/s19---17---16---------------|
D|-------------------------------------------------|---------------17---19---17--|
A|-------------------------------------------------|-----------------------------|
E|-------------------------------------------------|-----------------------------|
A|-------------------------------------------------|-----------------------------|

E|---------------------------------|-----------------------|---------------------------------------------|
B|---------------------------------|-------------------15--|-/s20~~~~---------------------------17h19h20-|
G|-/s16---17---19----19b--19---17--|-16~~~~/s14---16-------|---------------------------17h19h20----------|
D|---------------------------------|-----------------------|------------------17h19h20-------------------|
A|---------------------------------|-----------------------|---------17h19h20----------------------------|
E|---------------------------------|-----------------------|---------------------------------------------|
A|---------------------------------|-----------------------|---------------------------------------------|

E|-/s20~~~~19------------|-----------------------|---------------------|--------------------------|
B|-------------17~\s13~~~|-/s18~~~17~~~15~~~13~~~|---------------------|-12--b--r--b--r--b--r--b--|
G|-----------------------|-----------------------|-14~~~12~~~-----12~~~|--------------------------|
D|-----------------------|-----------------------|-----------14~~~-----|--------------------------|
A|-----------------------|-----------------------|---------------------|--------------------------|
E|-----------------------|-----------------------|---------------------|--------------------------|
A|-----------------------|-----------------------|---------------------|--------------------------|

E|-------------------------------------------------|--------|--------|
B|----------13-15-17-15-17-18-15-17-18-15-17-18-17-|-17~~~~~|~~~~~~~~|
G|-12-14-16----------------------------------------|--------|--------|
D|-------------------------------------------------|--------|--------|
A|-------------------------------------------------|--------|--------|
E|-------------------------------------------------|--------|--------|
A|-------------------------------------------------|--------|--------|



Добавлено: 01.10.2015
Другие материалы по этой песне:

Страница создана 01.10.2015
http://primanota.ru/upon-a-burning-body/judgement-chords.htm
Привет, Гость.
Предлагаем пройти революционный курс по гитаре.
Подарок от PrimaNota.Ru, забирай!