PrimaNota.ru - самый крупный в мире бесплатный архив песенных текстов, аккордов, табулатур и нот


Upon A Burning Body - El Mariachi - таба, видео

Регистрация Запомнить меня
Войти через:  Facebook Google Twitter Vk Yandex Mail.ru

Upon A Burning Body - El Mariachi - таба, видео

Печатать
Просмотров: 223
Уроки эстрадного вокала в Санкт-Петербурге
-------------------------------------------------------------------------------
                            El Mariachi - Upon A Burning Body
-------------------------------------------------------------------------------
Tabbed by: Misslivmew


Tuning: Standard Tuning EADGBE and can be played on a acoustic guitar.

e|-------------------|----------------------------|---------------------------------|
B|-------------------|-----------------------7-----|--------------------------------|
G|--9--9--10--9--7---|-7----------------9----------|--------------------------------|
D|----------------10-|----9-------7--10--------10--|--9--6------7--9-10-9-7--7--9---|
A|-------------------|------10---8-----------------|---------7----------------------|
E|-------------------|-----------------------------|--------------------------------|

e|-----------------------------------|--------------------------------------------8-10-12-10-8----|
B|-----------------------------------|--------------8-------------------------8-10--12------------|
G|----7-9-9-9-10-9-7-----7-----------|--7-10-7-------------------------7-9-10---------------------|
D|-10-----------------10----10-9--10-|-----------9---------------7-9-10---------------------------|
A|-----------------------------------|-----------------------5-7-8--------------------------------|
E|-----------------------------------|-----------------5-7--8-------------------------------------|

e|--13-12-10-8-10-8------8--------------------|--------------------------------------|
B|-------------------12----12-10-12-10-8-10-8-|-----8--------------------------------|
G|--------------------------------------------|-10----10-9-10-9-7-9-7----7-----------|
D|--------------------------------------------|-----------------------10---10--------|
A|--------------------------------------------|--------------------------------------|
E|--------------------------------------------|--------------------------------------|

e|-----------------------------------------------------------------------------------|
B|-----------------------------------------------------------------------------------|
G|----------9--------------9-7-------------------------------------------------------|
D|---7-9-10----10---7-9-10-----10----9-10-9-7-9-7----9-10-9-7-9-7--------------------|
A|-7--------------7-------------------------------10---------------10----------------|
E|-----------------------------------------------------------------------------------|

e|--------------------------------------------------------------|------------------------------------|
B|--------------------------------------------------------------|------------------------------------|
G|------------9-10-12-10-9---------10-9-------------------------|--9-10-9-7-9-7-9-7----9-10-7-9-7----|
D|----9-10-12--------------12-10-9------12-10-9-----------7-9-10|-------------------10------------10-|
A|-10-------------------------------------------12-7-8-10-------|------------------------------------|
E|--------------------------------------------------------------|------------------------------------|

e|-------------------------|---------------------------|----------------------|----------------------------|
B|-------------------------|---------------------------|----------------------|----------------------------|
G|-------------------------|---------------------------|----------9-7---------|-----------12-10-9----9-----|
D|7--8-7---8--7----8-7---8-|-5-6---7-6-----7-6---7-6---|---7-9-10-----10-9-10-|----9-10-12--------12-------|
A|-7-----7-------7-----7---|------6-----6------6-----6-|-7--------------------|-10-------------------------|
E|-------------------------|---------------------------|----------------------|----------------------------|

e|--------------------|----------------------|-------------------------|-----------------------------|
B|--------------------|----------------------|-------------------------|-----------------------------|
G|--------------------|-----------9-7--------|------------12-10-9----9-|---9--8--7-------------------|
D|-9-10-9-7-9-7----7-9|---7--9-10-----10-9-10|----9-10-12---------12---|------------10---9-10-9------|
A|--------------10----|-7--------------------|-10----------------------|-7--7--7--7----7-------------|
E|--------------------|----------------------|-------------------------|-----------------------------|

e|------------------------------------------------------------8-10-12--|
B|-5--5----5---5----5-----5----5--------------------8-10-12------------|
G|-4----4----4----4----4----4--4-------------7-9-10--------------------|
D|-6------6----6----6----6-----6-------6-7-9---------------------------|
A|-7---------------------------7---5-7-8-------------------------------|
E|---------------------------------------------------------------------|


************************************

| /   slide up
| \   slide down
| h   hammer-on
| p   pull-off
| ~   vibrato
| +   harmonic
| x   Mute note
| b   Bend
| pb  Pre-bend
| br  Bend release
| pbr Pre-bend release
| brb Bend release bend

************************************
Добавлено: 07.08.2014
Другие материалы по этой песне:

Страница создана 09.08.2013
http://primanota.ru/upon-a-burning-body/el-mariachi-chords.htm
Привет, Гость.
Предлагаем пройти революционный курс по гитаре.
Подарок от PrimaNota.Ru, забирай!