PrimaNota.ru - самый крупный в мире бесплатный архив песенных текстов, аккордов, табулатур и нот


Upon A Burning Body - Bring The Rain - таба, видео

Регистрация Запомнить меня
Войти через:  Facebook Google Twitter Vk Yandex Mail.ru

Upon A Burning Body - Bring The Rain - таба, видео

Печатать
Просмотров: 227
-----------------------------------------------------------------------------------------
|                          UPON A BURNING BODY - BRING THE RAIN                         |
|                         Album: The World is My Enemy Now (2014)                       |
-----------------------------------------------------------------------------------------
           If you have questions or corrections feel free to send me a message:
                        http://profile.ultimate-guitar.com/godspeedy/
                           https://www.facebook.com/Godspeedy14
                           
        Also, check out my Youtube channel: http://www.youtube.com/user/Godspeedy14

                                  Tuning: 7 string AEADGBE 
                                                        
**************************************GUITAR NOTATIONS***********************************
*                                                                                       *
*                                | *   palm mute         |                              *
*                                | s   slide             |                              *
*                                | s\  slide downwards   |                              *
*                                | s/  slide upwards     |                              *
*                                | ~   vibrato           |                              *
*                                | +   pinch harmonics   |                              *
*                                | x   Mute note         |                              *
*                                | b   bend              |                              *
*                                | r   release           |                              *
*                                | br  bend release      |                              *
*                                                                                       *
*****************************************************************************************

-----------------------------------------------------------------------------------------
|                                    INTRO (00:00-00:41)                                |
-----------------------------------------------------------------------------------------

Guitar 1 (w/ dist)

(fade in)
                                                                         ----------|
E|---------------------------------|-----------------------------------------|     |
B|---------------------------------|-----------------------------------------|     |
G|---------------------------------|-----------------------------------------|     |
D|-7-7-7-7-7-7-7-7-7-7-7-7-7-7-7-7-|-7-7-7-7-7-7-7-7-10-10-10-10-10-10-10-10-|     |
A|-x-x-x-x-x-x-x-x-x-x-x-x-x-x-x-x-|-x-x-x-x-x-x-x-x-x--x--x--x--x--x--x--x--|     |
E|-5-5-5-5-5-5-5-5-5-5-5-5-5-5-5-5-|-5-5-5-5-5-5-5-5-8--8--8--8--8--8--8--8--|     |
A|---------------------------------|-----------------------------------------|     |
                                                                                   | x4
E|---------------------------------|---------------------------------|             |
B|---------------------------------|---------------------------------|             |
G|---------------------------------|---------------------------------|             |
D|-3-3-3-3-3-3-3-3-3-3-3-3-3-3-3-3-|-6-6-6-6-6-6-6-6-6-6-6-6-6-6-6-6-|             |
A|-x-x-x-x-x-x-x-x-x-x-x-x-x-x-x-x-|-x-x-x-x-x-x-x-x-x-x-x-x-x-x-x-x-|             |
E|-1-1-1-1-1-1-1-1-1-1-1-1-1-1-1-1-|-4-4-4-4-4-4-4-4-4-4-4-4-4-4-4-4-|             |
A|---------------------------------|---------------------------------|             |
                                                                  -----------------|

E|---------------------------------|-----------------------------------------|
B|---------------------------------|-----------------------------------------|
G|---------------------------------|-----------------------------------------|
D|-7-7-7-7-7-7-7-7-7-7-7-7-7-7-7-7-|-7-7-7-7-7-7-7-7-10-10-10-10-10-10-10-10-|
A|-x-x-x-x-x-x-x-x-x-x-x-x-x-x-x-x-|-x-x-x-x-x-x-x-x-x--x--x--x--x--x--x--x--|
E|-5-5-5-5-5-5-5-5-5-5-5-5-5-5-5-5-|-5-5-5-5-5-5-5-5-8--8--8--8--8--8--8--8--|
A|---------------------------------|-----------------------------------------|
                      
E|---------------------------------|---------------------------------|
B|---------------------------------|---------------------------------|
G|---------------------------------|---------------------------------|
D|-3-3-3-3-3-3-3-3-3-3-3-3-3-3-3-3-|-7---s\--------------------------|
A|-x-x-x-x-x-x-x-x-x-x-x-x-x-x-x-x-|-7---s\--------------------------|
E|-1-1-1-1-1-1-1-1-1-1-1-1-1-1-1-1-|-5---s\--------------------------|
A|---------------------------------|---------------------------------|

-----------------------------------------------------------------------------------------
|                                    CHORUS (00:41-01:09)                               |
-----------------------------------------------------------------------------------------

Guitars 1 and 2 (w/ dist)
                                                                           -------------------------------|
E|--------------|-------------------|---------------|-------------------------|                           |
B|--------------|-------------------|---------------|-------------------------|                           |
G|--------------|-------------------|---------------|-------------------------|                           |
D|--------------|-------------------|---------------|-------------------------|                           |
A|--------------|-------------------|-8-------------|-------------------------|                           |
E|--------------|-------------------|-8-----4-4-4-4-|---4-4---4-4---1-1--1-1--|                           |
A|-0-----0-0-0--|--0-0-0----0-0-0-0-|-8-----4-4-4-4-|---4-4---4-4---1-1--1-1--|                           |
         * *       * *      * * * *         * * * *     * *   * *   * *  * *                              | x2
E|---------------------|-------------------------|------------------------|---------------------------|   |
B|---------------------|-------------------------|------------------------|---------------------------|   |
G|---------------------|-------------------------|------------------------|---------------------------|   |
D|---------------------|-------------------------|------------------------|---------------------------|   |
A|---------------------|-------------------------|------------------------|---------------------------|   |
E|-0-------------------|-0-----------------------|-8------------8----8----|-4-4---4-4---4-4-----------|   |
A|-0----0--0-0-0-----0-|-0----0--0-0-0---0-0-0-0-|-8----8-8-8-8-8----8----|-4-4---4-4---4-4---1-1-1-1-|   |
        *  * * *     *        *  * * *   * * * *        * * * *             * *   * *   * *   * * * *     |
                                                                           -------------------------------|

Guitar 3 (w/ dist)

                                                                         ----------|
E|---------------------------------|-----------------------------------------|     |
B|---------------------------------|-----------------------------------------|     | 
G|---------------------------------|-----------------------------------------|     |
D|-7-7-7-7-7-7-7-7-7-7-7-7-7-7-7-7-|-7-7-7-7-7-7-7-7-10-10-10-10-10-10-10-10-|     |
A|-x-x-x-x-x-x-x-x-x-x-x-x-x-x-x-x-|-x-x-x-x-x-x-x-x-x--x--x--x--x--x--x--x--|     |
E|-5-5-5-5-5-5-5-5-5-5-5-5-5-5-5-5-|-5-5-5-5-5-5-5-5-8--8--8--8--8--8--8--8--|     |
A|---------------------------------|-----------------------------------------|     |
                                                                                   | x2
E|---------------------------------|---------------------------------|             |
B|---------------------------------|---------------------------------|             |
G|---------------------------------|---------------------------------|             |
D|-3-3-3-3-3-3-3-3-3-3-3-3-3-3-3-3-|-6-6-6-6-6-6-6-6-6-6-6-6-6-6-6-6-|             |
A|-x-x-x-x-x-x-x-x-x-x-x-x-x-x-x-x-|-x-x-x-x-x-x-x-x-x-x-x-x-x-x-x-x-|             |
E|-1-1-1-1-1-1-1-1-1-1-1-1-1-1-1-1-|-4-4-4-4-4-4-4-4-4-4-4-4-4-4-4-4-|             |
A|---------------------------------|---------------------------------|             |
                                                                  -----------------|

-----------------------------------------------------------------------------------------
|                                   VERSE (01:09-01:37)                                 |
-----------------------------------------------------------------------------------------

I. Guitars 1 and 2 (w/ dist)
                                               -------------------|
E|------------------------|------------------------|              |
B|------------------------|------------------------|              |
G|------------------------|------------------------|              |
D|------------------------|------------------------|              |
A|-1----------------------|------------------------|              |
E|-1--------------------0-|--0--0-0----------------|              |
A|-1---0-------0-0-0-0--0-|--0--0-0--0-0-1---4--1--|              |
               * * * *  *    *  * *  * *                          | x2
E|----------------------------|------------------------------|    |
B|----------------------------|------------------------------|    |
G|----------------------------|------------------------------|    |
D|----------------------------|------------------------------|    |
A|----------------------------|------------------------------|    |
E|--------------------------0-|--0--0-0----------------------|    |
A|-1-1-1-1-0-------0-0-0-0--0-|--0--0-0--0-0-4-4-4-4-1-1-1-1-|    |
   * * * *         * * * *  *    *  * *  * * * * * * * * * *      |
                                               -------------------|

   Guitar 3 (w/ dist)

E|---------------------------------|---------------------------------|
B|---------------------------------|---------------------------------|
G|---------------------------------|---------------------------------|
D|-8-8-8-8-7-7-7-7-7-7-7-7-7-7-7-7-|-7-7-7-7-7-7-7-7-8-8-8-8-8-8-8-8-|
A|-x-x-x-x-x-x-x-x-x-x-x-x-x-x-x-x-|-x-x-x-x-x-x-x-x-x-x-x-x-x-x-x-x-|
E|-6-6-6-6-5-5-5-5-5-5-5-5-5-5-5-5-|-5-5-5-5-5-5-5-5-6-6-6-6-6-6-6-6-|
A|---------------------------------|---------------------------------|

E|---------------------------------|---------------------------------|
B|---------------------------------|---------------------------------|
G|---------------------------------|---------------------------------|
D|-8-8-8-8-7-7-7-7-7-7-7-7-7-7-7-7-|-7-7-7-7-7-7-7-7-8-8-8-8-8-8-8-8-|
A|-x-x-x-x-x-x-x-x-x-x-x-x-x-x-x-x-|-x-x-x-x-x-x-x-x-x-x-x-x-x-x-x-x-|
E|-6-6-6-6-5-5-5-5-5-5-5-5-5-5-5-5-|-5-5-5-5-5-5-5-5-6-6-6-6-6-6-6-6-|
A|---------------------------------|---------------------------------|

E|-------------------------------------------------|-------------------------------------------------|
B|-------------------------------------------------|-------------------------------------------------|
G|-------------------------------------------------|-------------------------------------------------|
D|-12-12-12-12-11-11-11-11-11-11-11-11-11-11-11-11-|-11-11-11-11-11-11-11-11-12-12-12-12-12-12-12-12-|
A|-x--x--x--x--x--x--x--x--x--x--x--x--x--x--x--x--|-x--x--x--x--x--x--x--x--x--x--x--x--x--x--x--x--|
E|-10-10-10-10-9--9--9--9--9--9--9--9--9--9--9--9--|-9--9--9--9--9--9--9--9--10-10-10-10-10-10-10-10-|
A|-------------------------------------------------|-------------------------------------------------|

E|-------------------------------------------------|-------------------------------------------------|
B|-------------------------------------------------|-------------------------------------------------|
G|-------------------------------------------------|-------------------------------------------------|
D|-15-15-15-15-14-14-14-14-14-14-14-14-15-15-15-15-|-14-14-14-14-20-20-20-20-19-19-19-19-15-15-15-15-|
A|-x--x--x--x--x--x--x--x--x--x--x--x--x--x--x--x--|-x--x--x--x--x--x--x--x--x--x--x--x--x--x--x--x--|
E|-13-13-13-13-12-12-12-12-12-12-12-12-13-13-13-13-|-12-12-12-12-18-18-18-18-17-17-17-17-13-13-13-13-|
A|-------------------------------------------------|-------------------------------------------------|

II. Guitars 1 and 2 (w/ dist)

E|-----------------------|------------------------|-----------------------|------------------------------|
B|-----------------------|------------------------|-----------------------|------------------------------|
G|-----------------------|------------------------|-----------------------|------------------------------|
D|-----------------------|------------------------|-----------------------|------------------------------|
A|-----------------------|------------------------|-----------------------|------------------------------|
E|-----------------------|------------------------|-----------------------|------------------------------|
A|-0---0-0----0-0-0-0--0-|--0--0-0--0-0-1---4--1--|-0---0-0----0-0-0-0--0-|--0--0-0--0-0-4-4-4-4-1-1-1-1-|
       *      * * *    *    *  *    * *                 *      * * *    *    *  *    * * * * * * * * * *
E|-----------------------|------------------------|-----------------------|---------------------------|
B|-----------------------|------------------------|-----------------------|---------------------------|
G|-----------------------|------------------------|-----------------------|---------------------------|
D|-----------------------|------------------------|-----------------------|---------------------------|
A|-----------------------|------------------------|-----------------------|---------------------------|
E|-----------------------|------------------------|-----------------------|---------------------------|
A|-0---0-0----0-0-0-0--0-|--0--0-0--0-0-1---4--1--|-0---0-0----0-0-0-0--0-|--0--0-0--0-0-4-4-4-4-4br--|
       *      * * *    *    *  *    * *                 *      * * *    *    *  *    * * * * * * +

    Guitar 3 (w/ dist)

E|---------------------------------|---------------------------------|
B|---------------------------------|---------------------------------|
G|---------------------------------|---------------------------------| x3
D|-------------8-8-7-7---------8-8-|-7-7-----------------------------| 
A|-7-7-8-8-7-7---------8-8-7-7-----|-----8-8-7-7-8-8-7-7-8-8-7-7-8-8-|
E|---------------------------------|---------------------------------|
A|---------------------------------|---------------------------------|
   * * * * * * * * * * * * * * * *   * * * * * * * * * * * * * * * *
E|---------------------------------|---------------------------------|
B|---------------------------------|---------------------------------|
G|---------------------------------|---------------------------------|
D|-------------8-8-7-7---------8-8-|-7-7-----------------------------| 
A|-7-7-8-8-7-7---------8-8-7-7-----|-----8-8-7-7-8-8-7-7-8-8---------|
E|---------------------------------|---------------------------------|
A|---------------------------------|---------------------------------|
   * * * * * * * * * * * * * * * *   * * * * * * * * * * * *

-----------------------------------------------------------------------------------------
|                                 PRE-CHORUS (01:37-01:44)                              |
-----------------------------------------------------------------------------------------

Guitars 1 and 2 (w/ dist)

E|---------------------------------|---------------------------------|
B|---------------------------------|---------------------------------|
G|---------------------------------|---------------------------------|
D|---------------------------------|---------------------------------|
A|---------------------------------|---------------------------------|
E|---------------------------------|---------------------------------|
A|-4-4-4-4-4-4-4-4-4-4-4-4-4-4-4-4-|-4-4-4-4-4-4-4-4-4-4-4-4-4-4-4-4-|

E|---------------------------------|---------------------------------|
B|---------------------------------|---------------------------------|
G|---------------------------------|---------------------------------|
D|---------------------------------|---------------------------------|
A|---------------------------------|---------------------------------|
E|---------------------------------|---------------------------------|
A|-1-1-1-1-1-1-1-1-1-1-1-1-1-1-1-1-|s7-7-7-7-7-7-7-7-7-7-7-7-7-7-7-7-|

Guitar 3 (w/ dist)

E|-------------------------------------------|-------------------------------------------|
B|-------------------------------------------|-------------------------------------------|
G|-12br------------12br------------12br------|-12br------------12br------------12br------|
D|-----15-15-15-15-----15-15-15-15-----15-15-|-----15-15-15-15-----15-15-15-15-----15-15-|
A|-------------------------------------------|-------------------------------------------|
E|-------------------------------------------|-------------------------------------------|
A|-------------------------------------------|-------------------------------------------|
       *  *  *  *      *  *  *  *      *  *        *  *  *  *      *  *  *  *      *  *
E|-------------------------------------------|-------------------------------------------|
B|-------------------------------------------|-------------------------------------------|
G|-/s10-------------9br-------------9br------|-9br-------------9br-------------9br-------|
D|-----11-11-11-11-----11-11-11-11-----11-11-|-----11-11-11-11-----11-11-11-11-----11-11-|
A|-------------------------------------------|-------------------------------------------|
E|-------------------------------------------|-------------------------------------------|
A|-------------------------------------------|-------------------------------------------|
       *  *  *  *      *  *  *  *      *  *        *  *  *  *      *  *  *  *      *  * 

-----------------------------------------------------------------------------------------
|                                   CHORUS 2 (01:44-02:11)                              |
-----------------------------------------------------------------------------------------
                                        same as CHORUS
-----------------------------------------------------------------------------------------
|                                    BRIDGE (02:11-03:07)                               |
-----------------------------------------------------------------------------------------

I. Guitar 1 (w/ dist)

E|-------|-------|-------|-------|-------|-------|-------|
B|-------|-------|-------|-------|-------|-------|-------|
G|-------|-------|-------|-------|-------|-------|-------|
D|-------|-------|-------|-------|-------|-------|-------|
A|-0-----|-------|-------|-------|-------|-------|-------|
E|-0-----|-------|-------|-------|-------|-------|-------|
A|-0-----|-------|-------|-------|-------|-------|-------|

E|--------------------|---------------|
B|--------------------|---------------|
G|--------------------|---------------|
D|--------------------|---------------|
A|-----0--4--3-----1--|---------------|
E|-----0--4--3--0--1--|---------------|
A|-----0--4--3--0--1--|-0-------------|
                *

   Guitar 2 (w/ dist)

E|------------------------------|--------------------------|------------------------------|
B|------------------------------|--------------------------|------------------------------|
G|------------------------------|--------------------------|------------------------------|
D|------------------------------|--------------------------|------------------------------|
A|------------------------------|--------------------------|------------------------------|
E|-----------------4------------|--------------------------|-----------------4------------|
A|-4-4-4-4-1-1-1-1----0------0--|----0------0--1--4--1--0--|-4-4-4-4-1-1-1-1----0------0--|
   * * * * * * * *                                           * * * * * * * *
E|------------------------------|------------------------------|--------------------------|
B|------------------------------|------------------------------|--------------------------|
G|------------------------------|------------------------------|--------------------------|
D|------------------------------|------------------------------|--------------------------|
A|--------------4-4-4-4---------|------------------------------|--------------------------|
E|------------------------------|-----------------4------------|--------------------------|
A|----0------0----------0-0-0-0-|-4-4-4-4-1-1-1-1----0------0--|----0------0--1--4--1--0--|
                                  * * * * * * * *           
E|------------------------------|--------------------------|---------------|
B|------------------------------|--------------------------|---------------|
G|------------------------------|--------------------------|---------------|
D|------------------------------|--------------------------|---------------|
A|------------------------------|-----------0--4--3-----1--|---------------|
E|-----------------4------------|-----------0--4--3--0--1--|---------------|
A|-4-4-4-4-1-1-1-1----0------0--|----0------0--4--3--0--1--|-0-------------|
   * * * * * * * *                                   *

II. Guitars 1 and 2 (w/ dist)

5 bars empty:

E|------------------------------|-------------|
B|------------------------------|-------------|
G|------------------------------|-------------|
D|------------------------------|-------------|
A|------------------------------|-------------|
E|-----------------4------------|-------------|
A|-4-4-4-4-1-1-1-1----0------0--|----0--------|
   * * * * * * * *

    Guitar 3 (w/ dist)

E|------------------------------|--------------------------|------------------------------|
B|------------------------------|--------------------------|------------------------------|
G|------------------------------|--------------------------|------------------------------|
D|------------------------------|--------------------------|------------------------------|
A|------------------------------|--------------------------|------------------------------|
E|-----------------4------------|--------------------------|-----------------4------------|
A|-4-4-4-4-1-1-1-1----0------0--|----0------0--1--4--1--0--|-4-4-4-4-1-1-1-1----0------0--|
   * * * * * * * *                                           * * * * * * * *
E|------------------------------|------------------------------|--------------------------|
B|------------------------------|------------------------------|--------------------------|
G|------------------------------|------------------------------|--------------------------|
D|------------------------------|------------------------------|--------------------------|
A|--------------4-4-4-4---------|------------------------------|--------------------------|
E|------------------------------|-----------------4------------|--------------------------|
A|----0------0----------0-0-0-0-|-4-4-4-4-1-1-1-1----0------0--|----0------0--1--4--1--0--|
                                  * * * * * * * *                   

III. Guitars 1 and 2 (w/ dist)

E|--------------------------|--------------------------|--------------------------|------------------------|
B|--------------------------|--------------------------|--------------------------|------------------------|
G|--------------------------|--------------------------|--------------------------|------------------------| x4
D|--------------------------|--------------------------|--------------------------|------------------------|
A|-----------1--------------|--------1-----0--4--1--0--|-----------1--------------|---7--4-----0--4--1--0--|
E|-0-0-0--0--1--0--0--0--0--|-0-0-0--1--0--0--4--1--0--|-0-0-0--0--1--0-----------|---7--4--0--0--4--1--0--|
A|-0-0-0--0--1--0--0--0--0--|-0-0-0--1--0--0--4--1--0--|-0-0-0--0--1--0--0--1-s7~~|~~~7--4--0--0--4--1--0--|
   * * *  *     *  *  *  *    * * *     *                * * *  *     *                     *

-----------------------------------------------------------------------------------------
|                                   VERSE 2 (03:07-03:41)                               |
-----------------------------------------------------------------------------------------

I. Guitars 1 and 2 (w/ dist)
                                               -------------------|
E|------------------------|------------------------|              |
B|------------------------|------------------------|              |
G|------------------------|------------------------|              |
D|------------------------|------------------------|              |
A|-1----------------------|------------------------|              |
E|-1--------------------0-|--0--0-0----------------|              |
A|-1---0-------0-0-0-0--0-|--0--0-0--0-0-1---4--1--|              |
               * * * *  *    *  * *  * *                          | x2
E|----------------------------|------------------------------|    |
B|----------------------------|------------------------------|    |
G|----------------------------|------------------------------|    |
D|----------------------------|------------------------------|    |
A|----------------------------|------------------------------|    |
E|--------------------------0-|--0--0-0----------------------|    |
A|-1-1-1-1-0-------0-0-0-0--0-|--0--0-0--0-0-4-4-4-4-1-1-1-1-|    |
   * * * *         * * * *  *    *  * *  * * * * * * * * * *      |
                                               -------------------|

   Guitar 3 (w/ dist)

E|---------------------------------|---------------------------------|
B|---------------------------------|---------------------------------|
G|---------------------------------|---------------------------------|
D|-8-8-8-8-7-7-7-7-7-7-7-7-7-7-7-7-|-7-7-7-7-7-7-7-7-8-8-8-8-8-8-8-8-|
A|-x-x-x-x-x-x-x-x-x-x-x-x-x-x-x-x-|-x-x-x-x-x-x-x-x-x-x-x-x-x-x-x-x-|
E|-6-6-6-6-5-5-5-5-5-5-5-5-5-5-5-5-|-5-5-5-5-5-5-5-5-6-6-6-6-6-6-6-6-|
A|---------------------------------|---------------------------------|

E|---------------------------------|---------------------------------|
B|---------------------------------|---------------------------------|
G|---------------------------------|---------------------------------|
D|-8-8-8-8-7-7-7-7-7-7-7-7-7-7-7-7-|-7-7-7-7-7-7-7-7-8-8-8-8-8-8-8-8-|
A|-x-x-x-x-x-x-x-x-x-x-x-x-x-x-x-x-|-x-x-x-x-x-x-x-x-x-x-x-x-x-x-x-x-|
E|-6-6-6-6-5-5-5-5-5-5-5-5-5-5-5-5-|-5-5-5-5-5-5-5-5-6-6-6-6-6-6-6-6-|
A|---------------------------------|---------------------------------|

E|-------------------------------------------------|-------------------------------------------------|
B|-------------------------------------------------|-------------------------------------------------|
G|-------------------------------------------------|-------------------------------------------------|
D|-12-12-12-12-11-11-11-11-11-11-11-11-11-11-11-11-|-11-11-11-11-11-11-11-11-12-12-12-12-12-12-12-12-|
A|-x--x--x--x--x--x--x--x--x--x--x--x--x--x--x--x--|-x--x--x--x--x--x--x--x--x--x--x--x--x--x--x--x--|
E|-10-10-10-10-9--9--9--9--9--9--9--9--9--9--9--9--|-9--9--9--9--9--9--9--9--10-10-10-10-10-10-10-10-|
A|-------------------------------------------------|-------------------------------------------------|

E|-------------------------------------------------|-------------------------------------------------|
B|-------------------------------------------------|-------------------------------------------------|
G|-------------------------------------------------|-------------------------------------------------|
D|-15-15-15-15-14-14-14-14-14-14-14-14-15-15-15-15-|-14-14-14-14-20-20-20-20-19-19-19-19-15-15-15-15-|
A|-x--x--x--x--x--x--x--x--x--x--x--x--x--x--x--x--|-x--x--x--x--x--x--x--x--x--x--x--x--x--x--x--x--|
E|-13-13-13-13-12-12-12-12-12-12-12-12-13-13-13-13-|-12-12-12-12-18-18-18-18-17-17-17-17-13-13-13-13-|
A|-------------------------------------------------|-------------------------------------------------|

II. Guitars 1 and 2 (w/ dist)

E|-----------------------|------------------------|-----------------------|------------------------------|
B|-----------------------|------------------------|-----------------------|------------------------------|
G|-----------------------|------------------------|-----------------------|------------------------------|
D|-----------------------|------------------------|-----------------------|------------------------------|
A|-----------------------|------------------------|-----------------------|------------------------------|
E|-----------------------|------------------------|-----------------------|------------------------------|
A|-0---0-0----0-0-0-0--0-|--0--0-0--0-0-1---4--1--|-0---0-0----0-0-0-0--0-|--0--0-0--0-0-4-4-4-4-1-1-1-1-|
       *      * * *    *    *  *    * *                 *      * * *    *    *  *    * * * * * * * * * *
E|-----------------------|------------------------|-----------------------|---------------------------|
B|-----------------------|------------------------|-----------------------|---------------------------|
G|-----------------------|------------------------|-----------------------|---------------------------|
D|-----------------------|------------------------|-----------------------|---------------------------|
A|-----------------------|------------------------|-----------------------|---------------------------|
E|-----------------------|------------------------|-----------------------|---------------------------|
A|-0---0-0----0-0-0-0--0-|--0--0-0--0-0-1---4--1--|-0---0-0----0-0-0-0--0-|--0--0-0--0-0-4-4-4-4-4br--|
       *      * * *    *    *  *    * *                 *      * * *    *    *  *    * * * * * * +

    Guitar 3 (w/ dist)

E|---------------------------------|---------------------------------|
B|---------------------------------|---------------------------------|
G|---------------------------------|---------------------------------| x3
D|-------------8-8-7-7---------8-8-|-7-7-----------------------------| 
A|-7-7-8-8-7-7---------8-8-7-7-----|-----8-8-7-7-8-8-7-7-8-8-7-7-8-8-|
E|---------------------------------|---------------------------------|
A|---------------------------------|---------------------------------|
   * * * * * * * * * * * * * * * *   * * * * * * * * * * * * * * * *
E|---------------------------------|---------------------------------|
B|---------------------------------|---------------------------------|
G|---------------------------------|---------------------------------|
D|-------------8-8-7-7---------8-8-|-7-7-----------------------------| 
A|-7-7-8-8-7-7---------8-8-7-7-----|-----8-8-7-7-8-8-7-7-8-8---------|
E|---------------------------------|---------------------------------|
A|---------------------------------|---------------------------------|
   * * * * * * * * * * * * * * * *   * * * * * * * * * * * *

III. Guitars 1 and 2 (w/ dist)

3 bars empty, then:

E|---------------------------|
B|---------------------------|
G|---------------------------|
D|---------------------------|
A|---------------------------|
E|-4-4---4-4---4-4-----------|
A|-4-4---4-4---4-4---1-1-1-1-|
   * *   * *   * *   * * * * 

     Guitar 3 (w/ dist)

E|---------------------------------|-----------------------------------------|--------------------------------|
B|---------------------------------|-----------------------------------------|--------------------------------|
G|---------------------------------|-----------------------------------------|--------------------------------|
D|-7-7-7-7-7-7-7-7-7-7-7-7-7-7-7-7-|-7-7-7-7-7-7-7-7-10-10-10-10-10-10-10-10-|-3-3-3-3-3-3-3-3-3-3-3-3-3-3-3-3|
A|-x-x-x-x-x-x-x-x-x-x-x-x-x-x-x-x-|-x-x-x-x-x-x-x-x-x--x--x--x--x--x--x--x--|-x-x-x-x-x-x-x-x-x-x-x-x-x-x-x-x|
E|-5-5-5-5-5-5-5-5-5-5-5-5-5-5-5-5-|-5-5-5-5-5-5-5-5-8--8--8--8--8--8--8--8--|-1-1-1-1-1-1-1-1-1-1-1-1-1-1-1-1|
A|---------------------------------|-----------------------------------------|--------------------------------|

-----------------------------------------------------------------------------------------
|                                   CHORUS 3 (03:41-04:10)                              |
-----------------------------------------------------------------------------------------
                                       same as CHORUS
-----------------------------------------------------------------------------------------
|                                     OUTRO (04:10-04:34)                               |
-----------------------------------------------------------------------------------------

Guitars 1 and 2 (w/ dist)

E|-------|-------|-------|-------|-------|-------|-------|-------|
B|-------|-------|-------|-------|-------|-------|-------|-------|
G|-------|-------|-------|-------|-------|-------|-------|-------|
D|-------|-------|-------|-------|-------|-------|-------|-------|
A|-0-----|-------|-------|-------|-------|-------|-------|-------|
E|-0-----|-------|-------|-------|-------|-------|-------|-------|
A|-0-----|-------|-------|-------|-------|-------|-------|-------|
Добавлено: 15.07.2015
Другие материалы по этой песне:

Страница создана 15.09.2014
http://primanota.ru/upon-a-burning-body/bring-rain-chords.htm
Привет, Гость.
Предлагаем пройти революционный курс по гитаре.
Подарок от PrimaNota.Ru, забирай!