PrimaNota.ru - самый крупный в мире бесплатный архив песенных текстов, аккордов, табулатур и нот


Upholder - Young Blood - таба, видео

Регистрация Запомнить меня
Войти через:  Facebook Google Twitter Vk Yandex Mail.ru

Upholder - Young Blood - таба, видео

Печатать
Просмотров: 113
Уроки эстрадного вокала в Санкт-Петербурге
-------------------------------------------------------------------------------
                             YOUNG BLOOD - UPHOLDER
-------------------------------------------------------------------------------
Tabbed by:LEONSSCOT117
E-mail:

Tuning:DROP A

tapping: t
bending: b
tremolo picking: Tp

              t  b             t  b             t  b
e|---------------------------------------------------------------------------|
B|---14-13-11-21-9----14-13 11-21-9----14-13-11-21-9-------------------------|
G|---------------------------------------------------------------------------|
D|---------------------------------------------------------------------------|
A|---------------------------------------------------------------------------|
E|---------------------------------------------------------------------------|

e|---------------------------------------------------------------------------|
B|---------------------------------------------------------------------------|
G|---------------------------------------------------------------------------|
D|---------------------------------------------------------------------------|
A|-00-0000-00-000-000-000-000--00-0000-00-000-000-000--00-0000-00-000-000-000|
E|-00-0000-00-000-000-000-000--00-0000-00-000-000-000--00-0000-00-000-000-000|
                                                                            b
e|---------------------------------------------------------------------------|
B|---------------------------------------------------------------------------|
G|---------------------------------------------------------------------------|
D|---------------------------------------------------------------------------|
A|--00-0000-00-04301013------------4313-00-0000-00-04301013-00-0000-00-04040-|
E|--00-0000-00-04301013-00-0000-00-4313-00-0000-00-04301013-00-0000-00-040404|
                     Tp                                      Tp
e|--------------------------------------------------------------------------------|
B|--------------------------------------------------------------------------------|
G|--------------------9---------------------------------------9-------------------|
D|------------------10-------------------7------------------10--------------------|
A|--------------------------------------8-8-----------------------------------000-|
E|-870-00000000-870-----870-0000000-870-----870-0000000-870-----870-00000-870-000-|

e|--------------------------------------------------------------------------------|
B|--------------------------------------------------------------------------------|
G|--------------------9-----------------------------------------------------------|
D|------------------10-------------------7----------------------------------------|
A|--------------------------------------8-8-----------------------------------000-|
E|-870-00000000-870-----870-0000000-870-----870-870-0000-0000000-870-870-0000-000-|
                                                          b
e|------------------------------------------------------------------------------------|
B|------------------------------------------------------------------------------------|
G|----------------------------------------------------------------------7-------------|
D|----------------------------------------------------------------------4-------------|
A|-----------------------------------0000000--00-0000-000---00-0000-000-5-00-0000-000-|
E|-870-870-0000-0000000-870-870-0000-0000000--00-0000-000-2-00-0000-000---00-0000-000-|
                   b                                                                           Tp
e|------------------------------------------------------------------------------------------------|
B|------------------------------------------------------------------------------------------------|
G|-------------------999--999-9-9-555--5-999--999-9-9-555--5-999-970-970-970-970-555-350-3535-109-|
D|-------------------777--777-7-7-777--3-777--777-7-7-777--3-777-----------------777--------------|
A|-00-0000-000--4--5-888--888-8-8-777--5-888--888-8-8-777--5-888-----------------777--------------|
E|-00-0000-000---56-----00---0-0-0---00------00---0-0-0---00--------------------------------------|
                                     Tp
e|------------------------------------------------------------------------------------------|
B|------------------------------------------------------------------------------------------|
G|-999-970-970-970-970-555-350-3535-109-999--999-9-9-555--555-5-5-999--999-9-9-555--555-5-5-|
D|-777-----------------777--------------777--777-7-7-777--777-7-7-777--777-7-7-777--777-7-7-|
A|-888-----------------777--------------888--888-8-8-777--777-7-7-888--888-8-8-777--777-7-7-|
E|-----------------------------------------00---0-0-0---00---0-0-----00---0-0-0---00---0-0--|
                     Tp                                      Tp
e|--------------------------------------------------------------------------------|
B|--------------------------------------------------------------------------------|
G|--------------------9---------------------------------------9-------------------|
D|------------------10-------------------7------------------10--------------------|
A|--------------------------------------8-8-----------------------------------000-|
E|-870-00000000-870-----870-0000000-870-----870-0000000-870-----870-00000-870-000-|

e|--------------------------------------------------------------------------------|
B|--------------------------------------------------------------------------------|
G|--------------------9-----------------------------------------------------------|
D|------------------10-------------------7----------------------------------------|
A|--------------------------------------8-8-----------------------------------000-|
E|-870-00000000-870-----870-0000000-870-----870-870-0000-0000000-870-870-0000-000-|
                                                          b
e|---------------------------------------------------------------------------------------|
B|---------------------------------------------------------------------------------------|
G|---------------------------------------------------------------------------------------|
D|---------------------------------------------------------------------------------------|
A|-----------------------------------0000--00-0000~--------------------------------------|
E|-870-870-0000-0000000-870-870-0000-0000--00-0000~--------------------------------------|

e|---------------------------------------------------------------------------|
B|---------------------------------------------------------------------------|
G|---------------------------------------------------------------------------|
D|-8-7-7-6----------8-7-7-6-------------8-7-7-6---------8-7-7-6--------------|   x3
A|-6-5-5-4----------6-5-5-4-------------6-5-5-4---------6-5-5-4--------------|
E|--------0000000000--------00004301013--------000000000--------00004301013--|

e|---------------------------------------------------------------------------|
B|---------------------------------------------------------------------------|
G|---------------------------------------------------------------------------|
D|---------------------------------------------------------------------------|
A|---------------------------------------------------------------------------|
E|---------------------------------------------------------------------------|


************************************

| /   slide up
| \   slide down
| h   hammer-on
| p   pull-off
| ~   vibrato
| +   harmonic
| x   Mute note
| b   Bend
| pb  Pre-bend
| br  Bend release
| pbr Pre-bend release
| brb Bend release bend

************************************
Добавлено: 19.05.2015
Другие материалы по этой песне:
  • Аккорды и текст

Страница создана 19.05.2015
http://primanota.ru/upholder/young-blood-chords.htm
Привет, Гость.
Предлагаем пройти революционный курс по гитаре.
Подарок от PrimaNota.Ru, забирай!