PrimaNota.ru - самый крупный в мире бесплатный архив песенных текстов, аккордов, табулатур и нот


Unwritten Law - Geronimo - аккорды и текст, таба, видео

Регистрация Запомнить меня
Войти через:  Facebook Google Twitter Vk Yandex Mail.ru

Unwritten Law - Geronimo - аккорды и текст, таба, видео

Печатать
Просмотров: 121
Уроки эстрадного вокала в Санкт-Петербурге
Geronimo
Unwritten Law
		   This was made using tabit (www.tabit.net), so the timing is right...

I transcribed this one myself...

Guitar 1
E  :----------------|----------------|----------------|----------------|
B  :----------------|--------------0-|----0---0-----0-|----0---0-----0-|
G  :----------------|----------------|----------------|----------------|
D  :----------------|------------2---|--2---------2---|--2---------2---|
A  :----------------|----------4-----|4-----4---3-----|3-----3---------|
E  :----------------|----------------|----------------|----------0-----|

E  :----------------|----------------|----------------|----------------|
B  :----0---0-----0-|----0---0-----0-|----0---0-----0-|----0---0-----0-|
G  :----------------|----------------|----------------|----------------|
D  :--2---------2---|--2---------2---|--2---------2---|--2---------2---|
A  :----------------|----------4-----|4-----4---3-----|3-----3---------|
E  :0-----0---0-----|0-----0---------|----------------|----------0-----|

E  :----------------|----------------|----------------|----------------|
B  :----0---0-----0-|----0---0-----0-|----0---0-----0-|----0---0-----0-|
G  :----------------|----------------|----------------|----------------|
D  :--2---------2---|--2---------2---|--2---------2---|--2---------2---|
A  :----------------|----------4-----|4-----4---3-----|3-----3---------|
E  :0-----0---0-----|0-----0---------|----------------|----------0-----|

E  :----------------|----------------|----------------|----------------|
B  :----0---0-----0-|----0---0-----0-|----0---0-----0-|----0---0-----0-|
G  :----------------|----------------|----------------|----------------|
D  :--2---------2---|--2---------2---|--2---------2---|--2---------2---|
A  :----------------|----------4-----|4-----4---3-----|3-----3---------|
E  :0-----0---0-----|0-----0---------|----------------|----------0-----|

E  :----------------|----------------|----------------|----------------|
B  :----0---0-----0-|----0---0-----0-|----0---0-----0-|----0---0-----0-|
G  :----------------|----------------|----------------|----------------|
D  :--2---------2---|--2---------2---|--2---------2---|--2---------2---|
A  :----------------|----------4-----|4-----4---3-----|3-----3---------|
E  :0-----0---0-----|0-----0---------|----------------|----------0-----|

E  :----------------|----------------|--------------------|
B  :----0---0-----0-|----0---0-------|--------------------|
G  :----------------|----------------|--------------------|
D  :--2---------2---|--2-------------|--------------------|
A  :----------------|----------------|--------------------|
E  :0-----0---0-----|0-----0---------|--------------------|

E  :----------------12-|------12-------12-|------12-------12---|
B  :--------------0----|0---0----0---0----|0---0----0---0----0-|
G  :------------9------|--9--------9------|--9--------9--------|
D  :-------------------|------------------|--------------------|
A  :-------------------|------------------|--------------------|
E  :-------------------|------------------|--------------------|

E  :----12-------12---|----12-------12---|----12-------12---|
B  :--0----0---0----0-|--0----0---0----0-|--0----0---0----0-|
G  :9--------9--------|9--------9--------|9--------9--------|
D  :------------------|------------------|------------------|
A  :------------------|------------------|------------------|
E  :------------------|------------------|------------------|

E  :----12---*-------|----------------|----------------|----------------|
B  :--0----0-*-------|----------------|----0-----0---0-|----0-----0---0-|
G  :9--------9*------|----------------|----------------|----------------|
D  :-----------------|----------------|--2-----2-------|--2-----2-------|
A  :-----------------|----------------|4-----4-----4---|3-----3-----3---|
E  :-----------------|----------------|----------------|----------------|

E  :----------------|----------------|----------------|----------------|
B  :----0-----0---0-|----0-----0---0-|----0-----0---0-|----0-----0---0-|
G  :----------------|----------------|----------------|----------------|
D  :--2-----2-------|--2-----2-------|--2-----2-------|--2-----2-------|
A  :----------------|----------------|4-----4-----4---|3-----3-----3---|
E  :0-----0-----0---|0-----0-----0---|----------------|----------------|

E  :----------------|----------------|----------------|----------------|
B  :----0-----0---0-|----0-----0---0-|----0-----0---0-|----0-----0---0-|
G  :----------------|----------------|----------------|----------------|
D  :--2-----2-------|--2-----2-------|--2-----2-------|--2-----2-------|
A  :----------------|----------------|4-----4-----4---|3-----3-----3---|
E  :0-----0-----0---|0-----0-----0---|----------------|----------------|

E  :----------------|----------------|----------------|----------------|
B  :----0-----0---0-|----0-----0---0-|----0-----0---0-|----0-----0---0-|
G  :----------------|----------------|----------------|----------------|
D  :--2-----2-------|--2-----2-------|--2-----2-------|--2-----2-------|
A  :----------------|----------------|4-----4-----4---|3-----3-----3---|
E  :0-----0-----0---|0-----0-----0---|----------------|----------------|

E  :----------------|----------------|----------|---------------|
B  :----0-----0---0-|----0-----0---0-|----------|---------------|
G  :----------------|----------------|----------|---------------|
D  :--2-----2-------|--2-----2-------|----------|---------------|
A  :----------------|----------------|----------|---------------|
E  :0-----0-----0---|0-----0-----0---|----------|---------------|

E  :----------------|-----------12-----|--12-------12-----|
B  :----------------|---------0----0---|0----0---0----0---|
G  :----------------|-------9--------9-|-------9--------9-|
D  :----------------|------------------|------------------|
A  :----------------|------------------|------------------|
E  :----------------|------------------|------------------|

E  :--12-------12-----|--12-------12-----|--12-------12-----|
B  :0----0---0----0---|0----0---0----0---|0----0---0----0---|
G  :-------9--------9-|-------9--------9-|-------9--------9-|
D  :------------------|------------------|------------------|
A  :------------------|------------------|------------------|
E  :------------------|------------------|------------------|

E  :--12-------12-----|--12-------12-----|--12-------12-----|
B  :0----0---0----0---|0----0---0----0---|0----0---0----0---|
G  :-------9--------9-|-------9--------9-|-------9--------9-|
D  :------------------|------------------|------------------|
A  :------------------|------------------|------------------|
E  :------------------|------------------|------------------|

E  :--12-------12-----|--12-------12-----|--12-------12-----|
B  :0----0---0----0---|0----0---0----0---|0----0---0----0---|
G  :-------9--------9-|-------9--------9-|-------9--------9-|
D  :------------------|------------------|------------------|
A  :------------------|------------------|------------------|
E  :------------------|------------------|------------------|

E  :--12-------12-----|--12--------------|-----------------|
B  :0----0---0----0---|0----0------------|-----------------|
G  :-------9--------9-|------------------|-----------------|
D  :------------------|-----------2---2-4|2---2-----2---2-4|
A  :------------------|-------4-4---4----|--4---3-3---3----|
E  :------------------|------------------|-----------------|

E  :----------------|------------------|-------------------|
B  :----------------|------------------|-------------------|
G  :----------------|------------------|-------------------|
D  :2---2-----1---2-|x-----1---2-4-2---|-----2---2-4-2---2-|
A  :--3---2-2-------|x-2-2-----------2-|-4-4---4-------4---|
E  :----------------|------------------|-------------------|

E  :------------------|----------------|------------------|
B  :------------------|----------------|------------------|
G  :------------------|----------------|------------------|
D  :----2---2-4-2---2-|----1---2-x-----|1---2-4-2--------2|
A  :3-3---3-------3---|2-2-------x-2-2-|----------2--4-4--|
E  :------------------|----------------|------------------|

E  :--------------|------------------|----------------|
B  :--------------|------------------|----------------|
G  :--------------|------------------|----------------|
D  :---2-4-2---2--|---2---2-4-2---2--|---1--2-x-----1-|
A  :-4-------4---3|-3---3-------3---2|-2------x-2-2---|
E  :--------------|------------------|----------------|

E  :------------------|------------------|------------------|
B  :------------------|------------------|------------------|
G  :------------------|------------------|------------------|
D  :--2-4-2--------2--|-2-4-2---2-----2--|-2-4-2---2-----1--|
A  :--------2--4-4---4|-------4---3-3---3|-------3---2-2----|
E  :------------------|------------------|------------------|

E  :------------------|------------------|------------------|
B  :------------------|------------------|------------------|
G  :------------------|------------------|------------------|
D  :2-x-----1---2-4-2-|-------2---2-4-2--|-2-----2---2-4-2--|
A  :--x-2-2-----------|2--4-4---4-------4|---3-3---3-------3|
E  :------------------|------------------|------------------|

E  :----------------|------------------|-----------------|
B  :----------------|------------------|-----------------|
G  :----------------|------------------|-----------------|
D  :-2-----1--2-x---|--1---2-4-2-------|-----------------|
A  :---2-2------x-2-|2-----------2--*--|-----------------|
E  :----------------|------------------|-----------------|

E  :----------------|----------------|12-------12-------|
B  :----------------|--------------0-|---0---0----0---0-|
G  :----------------|------------9---|-----9--------9---|
D  :----------------|----------------|------------------|
A  :----------------|----------------|------------------|
E  :----------------|----------------|------------------|

E  :12-------12-------|12-------12-------|12-------12-------|
B  :---0---0----0---0-|---0---0----0---0-|---0---0----0---0-|
G  :-----9--------9---|-----9--------9---|-----9--------9---|
D  :------------------|------------------|------------------|
A  :------------------|------------------|------------------|
E  :------------------|------------------|------------------|

E  :12-------12-------|12-------12-------|12-------12-------|
B  :---0---0----0---0-|---0---0----0---0-|---0---0----0---0-|
G  :-----9--------9---|-----9--------9---|-----9--------9---|
D  :------------------|------------------|------------------|
A  :------------------|------------------|------------------|
E  :------------------|------------------|------------------|

E  :12-------12-------|12-------12-------|12-------12-------|
B  :---0---0----0---0-|---0---0----0---0-|---0---0----0---0-|
G  :-----9--------9---|-----9--------9---|-----9--------9---|
D  :------------------|------------------|------------------|
A  :------------------|------------------|------------------|
E  :------------------|------------------|------------------|

E  :12-------12-------|12-------12-------|------------*---|
B  :---0---0----0---0-|---0---0----0-----|------------*---|
G  :-----9--------9---|-----9------------|------------*---|
D  :------------------|------------------|------------*---|
A  :------------------|------------------|------------*---|
E  :------------------|------------------|------------*---|

Guitar 2 Parts

Pre Verse

E  :----------------|----------------|--------------------|
B  :----------------|----------------|--------------------|
G  :----------------|----------------|--------------------|
D  :----------------|----------------|----7-7-7-7-7-7-7-7-|
A  :----------------|----------------|----7-7-7-7-7-7-7-7-|
E  :----------------|----------------|----5-5-5-5-5-5-5-5-|
                Verse
E  :------------------|----------------|------------------|
B  :------------------|----------------|------------------|
G  :------------------|----------------|------------------|
D  :x-9-9-9-9---7-7-7-|7-7-7-7-7-9-9-9-|9-9-9-9-9-2-2-2-2-|
A  :x-9-9-9-9---7-7-7-|7-7-7-7-7-9-9-9-|9-9-9-9-9-2-2-2-2-|
E  :x-7-7-7-7---5-5-5-|5-5-5-5-5-7-7-7-|7-7-7-7-7-0-0-0-0-|

E  :----------------|----------------|----------------|----------------|
B  :----------------|----------------|----------------|----------------|
G  :----------------|----------------|----------------|----------------|
D  :2-2-2-2-2-2-2-2-|2-2-2-2-7-7-7-7-|7-7-7-7-9-9-9-9-|9-9-9-9-4-------|
A  :2-2-2-2-2-2-2-2-|2-2-2-2-7-7-7-7-|7-7-7-7-9-9-9-9-|9-9-9-9---------|
E  :0-0-0-0-0-0-0-0-|0-0-0-0-5-5-5-5-|5-5-5-5-7-7-7-7-|7-7-7-7---------|

2nd Pre-Verse and Verse

E  :----------------|----------------|----------|---------------|
B  :----------------|----------------|----------|---------------|
G  :----------------|----------------|----------|---------------|
D  :----------------|----------------|7-x-x-7-x-|x-9-x-x-9-x-x-7|
A  :----------------|----------------|7-x-x-7-x-|x-9-x-x-9-x-x-7|
E  :----------------|----------------|5-x-x-5-x-|x-7-x-x-7-x-x-5|

E  :----------------|-----------------|----------------|----------------|
B  :----------------|-----------------|----------------|----------------|
G  :----------------|-----------------|----------------|----------------|
D  :-x-x-7-x-x-x-9-9|-9-9---7-7-7-7-7-|7-7-7-9-9-9-9-9-|9-9-9-2-2-2-2-2-|
A  :-x-x-7-x-x-x-9-9|-9-9---7-7-7-7-7-|7-7-7-9-9-9-9-9-|9-9-9-2-2-2-2-2-|
E  :-x-x-5-x-x-x-7-7|-7-7---5-5-5-5-5-|5-5-5-7-7-7-7-7-|7-7-7-0-0-0-0-0-|

E  :----------------|----------------|----------------|----------------|
B  :----------------|----------------|----------------|----------------|
G  :----------------|----------------|----------------|----------------|
D  :2-2-2-2-2-2-2-2-|2-2-2-7-7-7-7-7-|7-7-7-9-9-9-9-9-|9-9-9-7-7-7-7-7-|
A  :2-2-2-2-2-2-2-2-|2-2-2-7-7-7-7-7-|7-7-7-9-9-9-9-9-|9-9-9-7-7-7-7-7-|
E  :0-0-0-0-0-0-0-0-|0-0-0-5-5-5-5-5-|5-5-5-7-7-7-7-7-|7-7-7-5-5-5-5-5-|

E  :----------------|----------------|----------------|----------------|
B  :----------------|----------------|----------------|----------------|
G  :----------------|----------------|----------------|----------------|
D  :7-7-7-9-9-9-9-9-|9-9-9-2-2-2-2-2-|2-2-2-2-2-2-2-2-|2-2-2-7-7-7-7-7-|
A  :7-7-7-9-9-9-9-9-|9-9-9-2-2-2-2-2-|2-2-2-2-2-2-2-2-|2-2-2-7-7-7-7-7-|
E  :5-5-5-7-7-7-7-7-|7-7-7-0-0-0-0-0-|0-0-0-0-0-0-0-0-|0-0-0-5-5-5-5-5-|

E  :----------------|----------------|----------------|----------------|
B  :----------------|----------------|----------------|----------------|
G  :----------------|----------------|----------------|----------------|
D  :7-7-7-9-9-9-9-9-|9-9-9-----------|----------------|----------------|
A  :7-7-7-9-9-9-9-9-|9-9-9-*---------|----------------|----------------|
E  :5-5-5-7-7-7-7-7-|7-7-7-----------|----------------|----------------|

Play this from the 3rd "Solo" to the end of the solo

E 12
B  x   as many times as needed
G  9     
Добавлено: 22.06.2013
Другие материалы по этой песне:
  • Аккорды и текст

Страница создана 08.03.2012
http://primanota.ru/unwritten-law/geronimo-chords.htm
Привет, Гость.
Предлагаем пройти революционный курс по гитаре.
Подарок от PrimaNota.Ru, забирай!