PrimaNota.ru - самый крупный в мире бесплатный архив песенных текстов, аккордов, табулатур и нот


Unwritten Law - Actress, Model... - текст песни, таба, видео

Регистрация Запомнить меня
Войти через:  Facebook Google Twitter Vk Yandex Mail.ru

Unwritten Law - Actress, Model... - текст песни, таба, видео

Печатать
Просмотров: 75
Artist: Unwritten Law
Song: Actress, Model ...

Tabbed by: Eddy Naim  undefined_@hotmail.com>

Comments:
- This tab is all my own work.
- If you notice any mistakes, LET ME KNOW!!
- I tabbed it all the way through, which makes it longer, but oh well :P
- Standard Tuning


p: pull-off to next note



GTR 1 (slide with wah) 
e |--------------------------------|--------------------------------| 
B |12--------------8---------------|12------8-------5-------8-------| 
G |--------------------------------|--------------------------------| 
D |--------------------------------|--------------------------------| 
A |--------------------------------|--------------------------------| 
E |--------------------------------|--------------------------------| 
   1   &   2   &   3   &   4   &    1   &   2   &   3   &   4   & 

GTR 2  
e |--------------------------------|--------------------------------| 
B |--------------------------------|--------------------------------| 
G |----7-----7---------7-----7-----|----7-----7---------7-----7-----| 
D |------5-----5---------5-----5---|------5-----5---------5-----5-0-| 
A |5-5-----------5-6-6-----------6-|8-8-----------8-7-7-------------| 
E |--------------------------------|--------------------------------| 
   1   &   2   &   3   &   4   &    1   &   2   &   3   &   4   & 




GTR 1                                                       |-slide to 3
e |--------------------------------|--------------------------------| 
B |12--------------8---------------|12------8-------5-------8-------3 
G |--------------------------------|--------------------------------| 
D |--------------------------------|--------------------------------| 
A |--------------------------------|--------------------------------| 
E |--------------------------------|--------------------------------| 
   1   &   2   &   3   &   4   &    1   &   2   &   3   &   4   & 

GTR 2  
e |--------------------------------|--------------------------------| 
B |--------------------------------|--------------------------------| 
G |----7-----7---------7-----7-----|----7-----7---------------------| 
D |------5-----5---------5-----5---|------5-----5-------------------| 
A |5-5-----------5-6-6-----------6-|8-8-----------8-7---7---7---7---| 
E |--------------------------------|--------------------------------| 
   1   &   2   &   3   &   4   &    1   &   2   &   3   &   4   & 
                                                    |------echo-----|

--------------------------------------------------------------------


GTR 1
e |--------------------------------|--------------------------------| 
B |--------------------------------|--------------------------------| 
G |--------------------------------|--------------------------------| 
D |--------------------------------|--------------------------------| 
A |--------------------------------|--------------------------------| 
E |--------------------------------|--------------------------------| 
   1   &   2   &   3   &   4   &    1   &   2   &   3   &   4   & 

GTR 2
e |--------------------------------|--------------------------------| 
B |--------------------------------|--------------------------------| 
G |--------------------------------|--------------------------------| 
D |--------------------------------|--------------------------------| 
A |5---5---5---5---5---5---5---55-5|4---4---4---4---4---4---4---44-4| 
E |3---3---3---3---3---3---3---33-3|3---3---3---3---3---3---3---33-3| 
   1   &   2   &   3   &   4   &    1   &   2   &   3   &   4   & 



                                     ------EQ setting: lots of bass->
GTR 1                                ------crescendo /w heavy dist.->
e |--------------------------------|--------------------------------| 
B |--------------------------------|--------------------------------| 
G |--------------------------------|--------------------------------| 
D |--------------------------------|5---5---5---5---5---5---5---55-5| 
A |--------------------------------|5---5---5---5---5---5---5---55-5| 
E |--------------------------------|3---3---3---3---3---3---3---33-3| 
   1   &   2   &   3   &   4   &    1   &   2   &   3   &   4   & 

GTR 2
e |--------------------------------|--------------------------------| 
B |--------------------------------|--------------------------------| 
G |--------------------------------|--------------------------------| 
D |--------------------------------|5---5---5---5---5---5---5---55-5| 
A |3---3---3---3---3---3---3---33-3|5---5---5---5---5---5---5---55-5| 
E |3---3---3---3---3---3---3---33-3|3---3---3---3---3---3---3---33-3| 
   1   &   2   &   3   &   4   &    1   &   2   &   3   &   4   & 


--------------------------------------------------------------------


GTR 1
e |--------------------------------|--------------------------------| 
B |--------------------------------|--------------------------------| 
G |--------------------------------|--------------------------------| 
D |5---5---5---5---5---5---5---55-5|5---5---5---5---5---5---5---55-5| 
A |5---5---5---5---5---5---5---55-5|4---4---4---4---4---4---4---44-4| 
E |3---3---3---3---3---3---3---33-3|3---3---3---3---3---3---3---33-3| 
   1   &   2   &   3   &   4   &    1   &   2   &   3   &   4   & 

GTR 2
e |--------------------------------|--------------------------------| 
B |--------------------------------|--------------------------------| 
G |--------------------------------|--------------------------------| 
D |5---5---5---5---5---5---5---55-5|5---5---5---5---5---5---5---55-5| 
A |5---5---5---5---5---5---5---55-5|4---4---4---4---4---4---4---44-4| 
E |3---3---3---3---3---3---3---33-3|3---3---3---3---3---3---3---33-3| 
   1   &   2   &   3   &   4   &    1   &   2   &   3   &   4   & 




GTR 1
e |--------------------------------|--------------------------------| 
B |--------------------------------|--------------------------------| 
G |--------------------------------|--------------------------------| 
D |5---5---5---5---5---5---5---55-5|5---5---5---5---5---5---5---55-5| 
A |3---3---3---3---3---3---3---33-3|5---5---5---5---5---5---5---55-5| 
E |3---3---3---3---3---3---3---33-3|3---3---3---3---3---3---3---33-3| 
   1   &   2   &   3   &   4   &    1   &   2   &   3   &   4   & 

GTR 2
e |--------------------------------|--------------------------------| 
B |--------------------------------|--------------------------------| 
G |--------------------------------|--------------------------------| 
D |5---5---5---5---5---5---5---55-5|5---5---5---5---5---5---5---55-5| 
A |3---3---3---3---3---3---3---33-3|5---5---5---5---5---5---5---55-5| 
E |3---3---3---3---3---3---3---33-3|3---3---3---3---3---3---3---33-3| 
   1   &   2   &   3   &   4   &    1   &   2   &   3   &   4   & 


--------------------------------------------------------------------



CHORUS

GTR 1
e |--------3---------------3-------|--------3---------------3-------| 
B |----0-------0-------0-------0---|----0-------0-------0-------0---| 
G |0---------------0---------------|2---------------2---------------| 
D |--------------------------------|--------------------------------| 
A |--------------------------------|--------------------------------| 
E |--------------------------------|--------------------------------| 
   1   &   2   &   3   &   4   &    1   &   2   &   3   &   4   & 

GTR 2
e |--------------------------------|--------------------------------| 
B |--------------------------------|--------------------------------| 
G |--------------------------------|2---2---2---2---2---2---2---2---| 
D |5---5---5---5---5---5---5---5---|2---2---2---2---2---2---2---2---| 
A |5---5---5---5---5---5---5---5---|0---0---0---0---0---0---0---0---| 
E |3---3---3---3---3---3---3---3---|--------------------------------| 
   1   &   2   &   3   &   4   &    1   &   2   &   3   &   4   & 



GTR 1
e |--------3-------5---3-----------|--------3-------5---3-----------| 
B |----3-------3-----------3-------|----3-------3-----------3-------| 
G |5---------------------------5---|4---------------------------4---| 
D |--------------------------------|--------------------------------| 
A |--------------------------------|--------------------------------| 
E |--------------------------------|--------------------------------| 
   1   &   2   &   3   &   4   &    1   &   2   &   3   &   4   & 

GTR 2
e |--------------------------------|--------------------------------| 
B |--------------------------------|--------------------------------| 
G |5---5---5---5---5---5---5---5---|--------------------------------| 
D |5---5---5---5---5---5---5---5---|5---5---5---5---5---5---5---5---| 
A |3---3---3---3---3---3---3---3---|5---5---5---5---5---5---5---5---| 
E |--------------------------------|3---3---3---3---3---3---3---3---| 
   1   &   2   &   3   &   4   &    1   &   2   &   3   &   4   & 



GTR 1
e |--------3---------------3-------|--------3---------------3-------| 
B |----0-------0-------0-------0---|----0-------0-------0-------0---| 
G |0---------------0---------------|2---------------2---------------| 
D |--------------------------------|--------------------------------| 
A |--------------------------------|--------------------------------| 
E |--------------------------------|--------------------------------| 
   1   &   2   &   3   &   4   &    1   &   2   &   3   &   4   & 

GTR 2
e |--------------------------------|--------------------------------| 
B |--------------------------------|--------------------------------| 
G |--------------------------------|2---2---2---2---2---2---2---2---| 
D |5---5---5---5---5---5---5---5---|2---2---2---2---2---2---2---2---| 
A |5---5---5---5---5---5---5---5---|0---0---0---0---0---0---0---0---| 
E |3---3---3---3---3---3---3---3---|--------------------------------| 
   1   &   2   &   3   &   4   &    1   &   2   &   3   &   4   & 



GTR 1
e |--------3---------------3-------|--------------------------------| 
B |----3-------3-------3-------3---|4-------------------------------| 
G |5---------------5---------------|--------------------------------| 
D |--------------------------------|--------------------------------| 
A |--------------------------------|--------------------------------| 
E |--------------------------------|--------------------------------| 
   1   &   2   &   3   &   4   &    1   &   2   &   3   &   4   & 

GTR 2                               Cm (let ring then pull off)
e |--------------------------------|3-------------------------------| 
B |--------------------------------|4----------p3-------------------| 
G |5---5---5---5---5---5---5---5---|5-------------------------------| 
D |5---5---5---5---5---5---5---5---|5-------------------------------| 
A |3---3---3---3---3---3---3---3---|3-------------------------------| 
E |--------------------------------|--------------------------------| 
   1   &   2   &   3   &   4   &    1   &   2   &   3   &   4   & 


--------------------------------------------------------------------


GTR 1
e |--------------------------------|--------------------------------| 
B |--------------------------------|--------------------------------| 
G |--------------------------------|--------------------------------| 
D |5---5---5---5---5---5---5---55-5|5---5---5---5---5---5---5---55-5| 
A |5---5---5---5---5---5---5---55-5|4---4---4---4---4---4---4---44-4| 
E |3---3---3---3---3---3---3---33-3|3---3---3---3---3---3---3---33-3| 
   1   &   2   &   3   &   4   &    1   &   2   &   3   &   4   & 

GTR 2
e |--------------------------------|--------------------------------| 
B |--------------------------------|--------------------------------| 
G |--------------------------------|--------------------------------| 
D |5---5---5---5---5---5---5---55-5|5---5---5---5---5---5---5---55-5| 
A |5---5---5---5---5---5---5---55-5|4---4---4---4---4---4---4---44-4| 
E |3---3---3---3---3---3---3---33-3|3---3---3---3---3---3---3---33-3| 
   1   &   2   &   3   &   4   &    1   &   2   &   3   &   4   & 




GTR 1
e |--------------------------------|--------------------------------| 
B |--------------------------------|--------------------------------| 
G |--------------------------------|--------------------------------| 
D |5---5---5---5---5---5---5---55-5|5---5---5---5---5---5---5---55-5| 
A |3---3---3---3---3---3---3---33-3|5---5---5---5---5---5---5---55-5| 
E |3---3---3---3---3---3---3---33-3|3---3---3---3---3---3---3---33-3| 
   1   &   2   &   3   &   4   &    1   &   2   &   3   &   4   & 

GTR 2
e |--------------------------------|--------------------------------| 
B |--------------------------------|--------------------------------| 
G |--------------------------------|--------------------------------| 
D |5---5---5---5---5---5---5---55-5|5---5---5---5---5---5---5---55-5| 
A |3---3---3---3---3---3---3---33-3|5---5---5---5---5---5---5---55-5| 
E |3---3---3---3---3---3---3---33-3|3---3---3---3---3---3---3---33-3| 
   1   &   2   &   3   &   4   &    1   &   2   &   3   &   4   & 


--------------------------------------------------------------------


GTR 1
e |--------------------------------|--------------------------------| 
B |--------------------------------|--------------------------------| 
G |--------------------------------|--------------------------------| 
D |5---5---5---5---5---5---5---55-5|5---5---5---5---5---5---5---55-5| 
A |5---5---5---5---5---5---5---55-5|4---4---4---4---4---4---4---44-4| 
E |3---3---3---3---3---3---3---33-3|3---3---3---3---3---3---3---33-3| 
   1   &   2   &   3   &   4   &    1   &   2   &   3   &   4   & 

GTR 2
e |--------------------------------|--------------------------------| 
B |--------------------------------|--------------------------------| 
G |--------------------------------|--------------------------------| 
D |5---5---5---5---5---5---5---55-5|5---5---5---5---5---5---5---55-5| 
A |5---5---5---5---5---5---5---55-5|4---4---4---4---4---4---4---44-4| 
E |3---3---3---3---3---3---3---33-3|3---3---3---3---3---3---3---33-3| 
   1   &   2   &   3   &   4   &    1   &   2   &   3   &   4   & 




GTR 1
e |--------------------------------|--------------------------------| 
B |--------------------------------|--------------------------------| 
G |--------------------------------|--------------------------------| 
D |5---5---5---5---5---5---5---55-5|5---5---5---5---5---5---5---55-5| 
A |3---3---3---3---3---3---3---33-3|5---5---5---5---5---5---5---55-5| 
E |3---3---3---3---3---3---3---33-3|3---3---3---3---3---3---3---33-3| 
   1   &   2   &   3   &   4   &    1   &   2   &   3   &   4   & 

GTR 2
e |--------------------------------|--------------------------------| 
B |--------------------------------|--------------------------------| 
G |--------------------------------|--------------------------------| 
D |5---5---5---5---5---5---5---55-5|5---5---5---5---5---5---5---55-5| 
A |3---3---3---3---3---3---3---33-3|5---5---5---5---5---5---5---55-5| 
E |3---3---3---3---3---3---3---33-3|3---3---3---3---3---3---3---33-3| 
   1   &   2   &   3   &   4   &    1   &   2   &   3   &   4   & 


--------------------------------------------------------------------



CHORUS

GTR 1
e |--------3---------------3-------|--------3---------------3-------| 
B |----0-------0-------0-------0---|----0-------0-------0-------0---| 
G |0---------------0---------------|2---------------2---------------| 
D |--------------------------------|--------------------------------| 
A |--------------------------------|--------------------------------| 
E |--------------------------------|--------------------------------| 
   1   &   2   &   3   &   4   &    1   &   2   &   3   &   4   & 

GTR 2
e |--------------------------------|--------------------------------| 
B |--------------------------------|--------------------------------| 
G |--------------------------------|2---2---2---2---2---2---2---2---| 
D |5---5---5---5---5---5---5---5---|2---2---2---2---2---2---2---2---| 
A |5---5---5---5---5---5---5---5---|0---0---0---0---0---0---0---0---| 
E |3---3---3---3---3---3---3---3---|--------------------------------| 
   1   &   2   &   3   &   4   &    1   &   2   &   3   &   4   & 



GTR 1
e |--------3-------5---3-----------|--------3-------5---3-----------| 
B |----3-------3-----------3-------|----3-------3-----------3-------| 
G |5---------------------------5---|4---------------------------4---| 
D |--------------------------------|--------------------------------| 
A |--------------------------------|--------------------------------| 
E |--------------------------------|--------------------------------| 
   1   &   2   &   3   &   4   &    1   &   2   &   3   &   4   & 

GTR 2
e |--------------------------------|--------------------------------| 
B |--------------------------------|--------------------------------| 
G |5---5---5---5---5---5---5---5---|--------------------------------| 
D |5---5---5---5---5---5---5---5---|5---5---5---5---5---5---5---5---| 
A |3---3---3---3---3---3---3---3---|5---5---5---5---5---5---5---5---| 
E |--------------------------------|3---3---3---3---3---3---3---3---| 
   1   &   2   &   3   &   4   &    1   &   2   &   3   &   4   & 



GTR 1
e |--------3---------------3-------|--------3---------------3-------| 
B |----0-------0-------0-------0---|----0-------0-------0-------0---| 
G |0---------------0---------------|2---------------2---------------| 
D |--------------------------------|--------------------------------| 
A |--------------------------------|--------------------------------| 
E |--------------------------------|--------------------------------| 
   1   &   2   &   3   &   4   &    1   &   2   &   3   &   4   & 

GTR 2
e |--------------------------------|--------------------------------| 
B |--------------------------------|--------------------------------| 
G |--------------------------------|2---2---2---2---2---2---2---2---| 
D |5---5---5---5---5---5---5---5---|2---2---2---2---2---2---2---2---| 
A |5---5---5---5---5---5---5---5---|0---0---0---0---0---0---0---0---| 
E |3---3---3---3---3---3---3---3---|--------------------------------| 
   1   &   2   &   3   &   4   &    1   &   2   &   3   &   4   & 



GTR 1
e |--------3---------------3-------|--------------------------------| 
B |----3-------3-------3-------3---|4-------------------------------| 
G |5---------------5---------------|--------------------------------| 
D |--------------------------------|--------------------------------| 
A |--------------------------------|--------------------------------| 
E |--------------------------------|--------------------------------| 
   1   &   2   &   3   &   4   &    1   &   2   &   3   &   4   & 

GTR 2                               Cm (let ring then pull off)
e |--------------------------------|3-------------------------------| 
B |--------------------------------|4----------p3-------------------| 
G |5---5---5---5---5---5---5---5---|5-------------------------------| 
D |5---5---5---5---5---5---5---5---|5-------------------------------| 
A |3---3---3---3---3---3---3---3---|3-------------------------------| 
E |--------------------------------|--------------------------------| 
   1   &   2   &   3   &   4   &    1   &   2   &   3   &   4   & 


--------------------------------------------------------------------


GTR 1 (slide with wah) 
e |--------------------------------|--------------------------------| 
B |12--------------8---------------|12------8-------5-------8-------| 
G |--------------------------------|--------------------------------| 
D |--------------------------------|--------------------------------| 
A |--------------------------------|--------------------------------| 
E |--------------------------------|--------------------------------| 
   1   &   2   &   3   &   4   &    1   &   2   &   3   &   4   & 

GTR 2  
e |--------------------------------|--------------------------------| 
B |--------------------------------|--------------------------------| 
G |----7-----7---------7-----7-----|----7-----7---------7-----7-----| 
D |------5-----5---------5-----5---|------5-----5---------5-----5-0-| 
A |5-5-----------5-6-6-----------6-|8-8-----------8-7-7-------------| 
E |--------------------------------|--------------------------------| 
   1   &   2   &   3   &   4   &    1   &   2   &   3   &   4   & 




GTR 1
e |--------------------------------|--------------------------------| 
B |12--------------8---------------|12------8-------5-------8-------| 
G |--------------------------------|--------------------------------| 
D |--------------------------------|--------------------------------| 
A |--------------------------------|--------------------------------| 
E |--------------------------------|--------------------------------| 
   1   &   2   &   3   &   4   &    1   &   2   &   3   &   4   & 

GTR 2  
e |--------------------------------|--------------------------------| 
B |--------------------------------|--------------------------------| 
G |----7-----7---------7-----7-----|----7-----7---------7-----7-----| 
D |------5-----5---------5-----5---|------5-----5---------5-----5-0-| 
A |5-5-----------5-6-6-----------6-|8-8-----------8-7-7-------------| 
E |--------------------------------|--------------------------------| 
   1   &   2   &   3   &   4   &    1   &   2   &   3   &   4   & 


--------------------------------------------------------------------


GTR 1 (slide with wah) 
e |--------------------------------|--------------------------------| 
B |12--------------8---------------|12------8-------5-------8-------| 
G |--------------------------------|--------------------------------| 
D |--------------------------------|--------------------------------| 
A |--------------------------------|--------------------------------| 
E |--------------------------------|--------------------------------| 
   1   &   2   &   3   &   4   &    1   &   2   &   3   &   4   & 

GTR 2  
e |--------------------------------|--------------------------------| 
B |--------------------------------|--------------------------------| 
G |----7-----7---------7-----7-----|----7-----7---------7-----7-----| 
D |------5-----5---------5-----5---|------5-----5---------5-----5-0-| 
A |5-5-----------5-6-6-----------6-|8-8-----------8-7-7-------------| 
E |--------------------------------|--------------------------------| 
   1   &   2   &   3   &   4   &    1   &   2   &   3   &   4   & 




GTR 1
e |--------------------------------|--------------------------------| 
B |12--------------8---------------|12------8-------5-------8-------| 
G |--------------------------------|--------------------------------| 
D |--------------------------------|--------------------------------| 
A |--------------------------------|--------------------------------| 
E |--------------------------------|--------------------------------| 
   1   &   2   &   3   &   4   &    1   &   2   &   3   &   4   & 

GTR 2  
e |--------------------------------|--------------------------------| 
B |--------------------------------|--------------------------------| 
G |----7-----7---------7-----7-----|----7-----7---------7-----7-----| 
D |------5-----5---------5-----5---|------5-----5---------5-----5-0-| 
A |5-5-----------5-6-6-----------6-|8-8-----------8-7-7-------------| 
E |--------------------------------|--------------------------------| 
   1   &   2   &   3   &   4   &    1   &   2   &   3   &   4   & 


--------------------------------------------------------------------


GTR 1                                                       |-slide to 3
e |--------------------------------|--------------------------------| 
B |12--------------8---------------|12------8-------5-------8-------3 
G |--------------------------------|--------------------------------| 
D |--------------------------------|--------------------------------| 
A |--------------------------------|--------------------------------| 
E |--------------------------------|--------------------------------| 
   1   &   2   &   3   &   4   &    1   &   2   &   3   &   4   & 

GTR 2  
e |--------------------------------|--------------------------------| 
B |--------------------------------|--------------------------------| 
G |----7-----7---------7-----7-----|----7-----7---------------------| 
D |------5-----5---------5-----5---|------5-----5-------------------| 
A |5-5-----------5-6-6-----------6-|8-8-----------8-7---7---7---7---| 
E |--------------------------------|--------------------------------| 
   1   &   2   &   3   &   4   &    1   &   2   &   3   &   4   & 
                                                    |------echo-----|


--------------------------------------------------------------------


GTR 1
e |--------------------------------|--------------------------------| 
B |--------------------------------|--------------------------------| 
G |--------------------------------|--------------------------------| 
D |--------------------------------|--------------------------------| 
A |--------------------------------|--------------------------------| 
E |--------------------------------|--------------------------------| 
   1   &   2   &   3   &   4   &    1   &   2   &   3   &   4   & 

GTR 2
e |--------------------------------|--------------------------------| 
B |--------------------------------|--------------------------------| 
G |--------------------------------|--------------------------------| 
D |--------------------------------|--------------------------------| 
A |5---5---5---5---5---5---5---55-5|4---4---4---4---4---4---4---44-4| 
E |3---3---3---3---3---3---3---33-3|3---3---3---3---3---3---3---33-3| 
   1   &   2   &   3   &   4   &    1   &   2   &   3   &   4   & 



GTR 1
e |--------------------------------|--------------------------------| 
B |--------------------------------|--------------------------------| 
G |--------------------------------|--------------------------------| 
D |--------------------------------|--------------------------------| 
A |--------------------------------|--------------------------------| 
E |--------------------------------|--------------------------------| 
   1   &   2   &   3   &   4   &    1   &   2   &   3   &   4   & 

GTR 2
e |--------------------------------|--------------------------------| 
B |--------------------------------|--------------------------------| 
G |--------------------------------|--------------------------------| 
D |--------------------------------|--------------------------------| 
A |3---3---3---3---3---3---3---33-3|5---5---5---5---5---5---5---55-5| 
E |3---3---3---3---3---3---3---33-3|3---3---3---3---3---3---3---33-3| 
   1   &   2   &   3   &   4   &    1   &   2   &   3   &   4   & 


--------------------------------------------------------------------



CHORUS

GTR 1
e |--------3---------------3-------|--------3---------------3-------| 
B |----0-------0-------0-------0---|----0-------0-------0-------0---| 
G |0---------------0---------------|2---------------2---------------| 
D |--------------------------------|--------------------------------| 
A |--------------------------------|--------------------------------| 
E |--------------------------------|--------------------------------| 
   1   &   2   &   3   &   4   &    1   &   2   &   3   &   4   & 

GTR 2
e |--------------------------------|--------------------------------| 
B |--------------------------------|--------------------------------| 
G |--------------------------------|2---2---2---2---2---2---2---2---| 
D |5---5---5---5---5---5---5---5---|2---2---2---2---2---2---2---2---| 
A |5---5---5---5---5---5---5---5---|0---0---0---0---0---0---0---0---| 
E |3---3---3---3---3---3---3---3---|--------------------------------| 
   1   &   2   &   3   &   4   &    1   &   2   &   3   &   4   & 



GTR 1
e |--------3---------------3-------|--------3-------5---3-----------| 
B |----3-------3-------3-------3---|----3-------3-----------3-------| 
G |5---------------5---------------|4---------------------------4---| 
D |--------------------------------|--------------------------------| 
A |--------------------------------|--------------------------------| 
E |--------------------------------|--------------------------------| 
   1   &   2   &   3   &   4   &    1   &   2   &   3   &   4   & 

GTR 2
e |--------------------------------|--------------------------------| 
B |--------------------------------|--------------------------------| 
G |5---5---5---5---5---5---5---5---|--------------------------------| 
D |5---5---5---5---5---5---5---5---|5---5---5---5---5---5---5---5---| 
A |3---3---3---3---3---3---3---3---|5---5---5---5---5---5---5---5---| 
E |--------------------------------|3---3---3---3---3---3---3---3---| 
   1   &   2   &   3   &   4   &    1   &   2   &   3   &   4   & 



GTR 1
e |--------3---------------3-------|--------3---------------3-------| 
B |----0-------0-------0-------0---|----0-------0-------0-------0---| 
G |0---------------0---------------|2---------------2---------------| 
D |--------------------------------|--------------------------------| 
A |--------------------------------|--------------------------------| 
E |--------------------------------|--------------------------------| 
   1   &   2   &   3   &   4   &    1   &   2   &   3   &   4   & 

GTR 2
e |--------------------------------|--------------------------------| 
B |--------------------------------|--------------------------------| 
G |--------------------------------|2---2---2---2---2---2---2---2---| 
D |5---5---5---5---5---5---5---5---|2---2---2---2---2---2---2---2---| 
A |5---5---5---5---5---5---5---5---|0---0---0---0---0---0---0---0---| 
E |3---3---3---3---3---3---3---3---|--------------------------------| 
   1   &   2   &   3   &   4   &    1   &   2   &   3   &   4   & 



GTR 1
e |--------3---------------3-------|--------3---5---6---5---3-------| 
B |----3-------3-------3-------3---|----4-----------------------4---| 
G |5---------------5---------------|5-------------------------------| 
D |--------------------------------|--------------------------------| 
A |--------------------------------|--------------------------------| 
E |--------------------------------|--------------------------------| 
   1   &   2   &   3   &   4   &    1   &   2   &   3   &   4   & 

GTR 2
e |--------------------------------|--------------------------------| 
B |--------------------------------|--------------------------------| 
G |5---5---5---5---5---5---5---5---|5---5---5---5---5---5---5---5---| 
D |5---5---5---5---5---5---5---5---|5---5---5---5---5---5---5---5---| 
A |3---3---3---3---3---3---3---3---|5---5---5---5---5---5---5---5---| 
E |--------------------------------|--------------------------------| 
   1   &   2   &   3   &   4   &    1   &   2   &   3   &   4   & 


--------------------------------------------------------------------
SLOWS DOWN UNTIL 4th BAR

GTR 1
e |--------------------------------|--------------------------------| 
B |3-------------------------------|--------------------------------| 
G |--------------------------------|--------------------------------| 
D |--------------------------------|--------------------------------| 
A |--------------------------------|--------------------------------| 
E |--------------------------------|--------------------------------| 
   1   &   2   &   3   &   4   &    1   &   2   &   3   &   4   & 

GTR 2
e |--------------------------------|--------------------------------| 
B |--------------------------------|--------------------------------| 
G |--------------------------------|--------------------------------| 
D |--------------------------------|--------------------------------| 
A |5---5---5---5---5---5---5---55-5|4---4---4---4---4---4---4---44-4| 
E |3---3---3---3---3---3---3---33-3|3---3---3---3---3---3---3---33-3| 
   1   &   2   &   3   &   4   &    1   &   2   &   3   &   4   & 



GTR 1
e |--------------------------------|--------------------------------| 
B |--------------------------------|--------------------------------| 
G |--------------------------------|12------------------------------| 
D |--------------------------------|12------------------------------| 
A |--------------------------------|10------------------------------| 
E |--------------------------------|10------------------------------| 
   1   &   2   &   3   &   4   &    1   &   2   &   3   &   4   & 

GTR 2
e |--------------------------------|--------------------------------| 
B |--------------------------------|--------------------------------| 
G |--------------------------------|--------------------------------| 
D |--------------------------------|5-------------------------------| 
A |3---3---3---3---3---3---3---33-3|5-------------------------------| 
E |3---3---3---3---3---3---3---33-3|3-------------------------------| 
   1   &   2   &   3   &   4   &    1   &   2   &   3   &   4   & 


THE END
     
Добавлено: 18.11.2013
Другие материалы по этой песне:
  • Аккорды и текст

Страница создана 09.03.2012
http://primanota.ru/unwritten-law/actress-model-chords.htm
Привет, Гость.
Предлагаем пройти революционный курс по гитаре.
Подарок от PrimaNota.Ru, забирай!