PrimaNota.ru - самый крупный в мире бесплатный архив песенных текстов, аккордов, табулатур и нот


Unwound - You Bite My Tongue - таба, видео

Регистрация Запомнить меня
Войти через:  Facebook Google Twitter Vk Yandex Mail.ru

Unwound - You Bite My Tongue - таба, видео

Печатать
Просмотров: 42
Уроки эстрадного вокала в Санкт-Петербурге
F standard tuning (Everything tuned up half a step) 

f|--------|
 c|--------|
G#|--------|
D#|-9--9-7-| repeat for a while
A#|-0--0-0-|
 F|-0--0-0-|

 f|---------------------------------------------|
 c|---------------------------------------------|
G#|---------6h7-6h7-6-6-6-----------------------|
D#|-7-7-777-0-0-0-0-7-7-7-5-5-555-4h5-4h5-0-0-0-| x6
A#|-0-0-000---------0-0-0-5-5-555-0-0-0---5-5-5-|
 F|---------------------------------------------|

 f|--------------------|
 c|--------------------|
G#|---------------5/12-|
D#|-5-5-5-55-xxxx------| x4
A#|-5-5-5-55-xxxx-3/10-|
 F|-3-3-3-33-xxxx------|

 f|----------------------------------------------------------|
 c|----------------------------------------------------------|
G#|-17171717171717171717171717171717171717171717171717171717-|
D#|----------------------------------------------------------|
A#|----------------------------------------------------------|
 F|----------------------------------------------------------|

 f|---------------------------------------------|
 c|---------------------------------------------|
G#|---------6h7-6h7-6-6-6-----------------------|
D#|-7-7-777-0-0-0-0-7-7-7-5-5-555-4h5-4h5-0-0-0-| x4
A#|-0-0-000---------0-0-0-5-5-555-0-0-0---5-5-5-|
 F|---------------------------------------------|

 f|--------------------|
 c|--------------------|
G#|---------------5/12-|
D#|-5-5-5-55-xxxx------| x4
A#|-5-5-5-55-xxxx-3/10-|
 F|-3-3-3-33-xxxx------|

 f|----------------------------------------------------------|
 c|----------------------------------------------------------|
G#|-17171717171717171717171717171717171717171717171717171717-|
D#|----------------------------------------------------------| repeat for a while
A#|----------------------------------------------------------|
 F|----------------------------------------------------------|

 f|---------------------------------------------|
 c|---------------------------------------------|
G#|---------6h7-6h7-6-6-6-----------------------|
D#|-7-7-777-0-0-0-0-7-7-7-5-5-555-4h5-4h5-0-0-0-| x4
A#|-0-0-000---------0-0-0-5-5-555-0-0-0---5-5-5-|
 F|---------------------------------------------|

 f|--------------------|
 c|--------------------|
G#|---------------5/12-|
D#|-5-5-5-55-xxxx------| x4
A#|-5-5-5-55-xxxx-3/10-|
 F|-3-3-3-33-xxxx------|
Добавлено: 29.11.2015
Другие материалы по этой песне:
  • Аккорды и текст

Страница создана 29.11.2015
http://primanota.ru/unwound/you-bite-my-tongue-chords.htm
Привет, Гость.
Предлагаем пройти революционный курс по гитаре.
Подарок от PrimaNota.Ru, забирай!