PrimaNota.ru - самый крупный в мире бесплатный архив песенных текстов, аккордов, табулатур и нот


Unwound - Unauthorised Autobiography - таба, видео

Регистрация Запомнить меня
Войти через:  Facebook Google Twitter Vk Yandex Mail.ru

Unwound - Unauthorised Autobiography - таба, видео

Печатать
Просмотров: 68
Unauthorized Autobiography
I only have a tiny bit of this one figured out.

Intro / Verse
guitar:
|(0-0)---(0-0)---(0-0)---(0-0)----|
|-0-0-----0-0-----0-0-----0-0-----|
|-4-4-----2-2-----4-4-----2-2-----|
|---------------------------------|
|-4-4-----3-3-----4-4-----3-3-----|
|---------------------------------|
notes in parenteses may or may not be there, i can't tell for sure.

bass (Intro):
|---------------------------------|
|---------------------------------|
|-4-4-x-x-3-3-x-x-4-4-x-x-3-3-x-x-|
|---------------------------------|

bass (verse):
|---------------------------------|
|---------------------------------|
|-3-4-4-0-4-3-3-0-3-4-4-0-4-3-3-0-|
|---------------------------------|

bass (second half of verse)
|---------------------------------|
|---------------------------------|
|-4-4-x-x-3-3-x-x-4-4-x-x-3-3-x-x-|
|---------------------------------|
 "can     you     re      write..."

Chorus:
guitar
|-0-0-0-0-0-0-0-0-0-0-0-0-0-0-0-0-0-0-0-0-0-0-0-0-0-0-0-0-0-0-0-0-|
|-5-5-5-5-5-5-5-5-3-3-3-3-3-3-3-3-0-0-0-0-0-0-0-0-0-0-0-0-0-0-0-0-|
|-5-5-5-5-5-5-5-5-5-5-5-5-5-5-5-5-2-2-2-2-2-2-2-2-2-2-2-2-2-2-2-2-|
|-4-4-4-4-4-4-4-4-4-4-4-4-4-4-4-4-3-3-3-3-3-3-3-3-3-3-3-3-3-3-3-3-|
|-0-0-0-0-0-0-0-0-0-0-0-0-0-0-0-0-3-3-3-3-3-3-3-3-3-3-3-3-3-3-3-3-|
|---------------------------------1-1-1-1-1-1-1-1-1-1-1-1-1-1-1-1-|
lyric:                                  "conversation with myself"

bass
|-----------------------------------------------------------------|
|---------3-3-3-0-------------------------3-3-3-0-----------------|
|-0-2-3-0-------------------------0-2-3-0-------------------------|
|-----------------4---4-4-4-4-4-4-----------------4---4-4-4-4-4-4-|

Right after the chorus:
guitar
|-5-5-x-x-5-5-x-x-5-5-x-x-5-5-x-x-5-5-x-x-5-5-x-x-5-5-x-x-5-5-x-x-|
|-5-5-x-x-5-5-x-x-5-5-x-x-5-5-x-x-5-5-x-x-5-5-x-x-5-5-x-x-5-5-x-x-|
|-4-4-x-x-4-4-x-x-4-4-x-x-4-4-x-x-4-4-x-x-4-4-x-x-4-4-x-x-4-4-x-x-|
|-----------------------------------------------------------------|
|-----------------------------------------------------------------|
|-----------------------------------------------------------------|

bass
|-----------------------------------------------------------------|
|-3-3-2-2-3-3-2-2-3-3-2-2-3-3-2-2-3-3-2-2-3-3-2-2-3-3-2-2-3-3-2-2-|
|-----------------------------------------------------------------|
|-----------------------------------------------------------------|

all chords are approximate, as usual.
Добавлено: 24.07.2013
Другие материалы по этой песне:
  • Аккорды и текст

Страница создана 24.07.2013
http://primanota.ru/unwound/unauthorised-autobiography-chords.htm
Привет, Гость.
Предлагаем пройти революционный курс по гитаре.
Подарок от PrimaNota.Ru, забирай!