PrimaNota.ru - самый крупный в мире бесплатный архив песенных текстов, аккордов, табулатур и нот


Unwound - Terminus - таба, бас-таба, видео

Регистрация Запомнить меня
Войти через:  Facebook Google Twitter Vk Yandex Mail.ru

Unwound - Terminus - таба, бас-таба, видео

Печатать
Просмотров: 174
Band: Unwound
Song: Terminus
Album: Leaves Turn Inside You
by: James Morton (morton.jamesrichard@gmail.com)

this is a tab of first part of the song, and I'll try to keep it updated when I 
finish the other two sections.
I've kept it in standard but I think on the track the low E might be dropped to D# so 
the bass can stay on the lowest string.

intro:
e|--------------------------|
B|--------------------------|
G|--------------------------|
D|--------------------------|
A|--7-7---7-7---7-7---7-7---|
E|--0-0---0-0---0-0---0-0---|
+
G|--------------------------|
D|--------------------------|
A|--------------------------|
E|--0-0-000-0-000-0-000-0---| x4

verse:
e|--------------------------|
B|--------------------------|
G|--------------------------|
D|--8-8---8-8---8-8---8-8---|
A|--6-6---6-6---6-6---6-6---|
E|--------------------------|
+
G|--------------------------|
D|--------------------------|
A|--6-6-666-6-666-6-666-6---|
E|--------------------------|  x4


e|-----------------------------|
B|-----------------------------|
G|-----------------------------|
D|--12--10--------------10-----|
A|---------13-10--12--9-----7--|
E|-----------------------------|
+
G|-----------------------------|
D|-----------------------------|
A|-----------------------------|
E|--10-------3-------7------0--|   (listen to song for timing)

e|--------------------------|
B|--------------------------|
G|--------------------------|
D|--8-8---8-8---8-8---8-8---|
A|--6-6---6-6---6-6---6-6---|
E|--------------------------|
+
G|--------------------------|
D|--------------------------|
A|--6-6-666-6-666-6-666-6---|
E|--------------------------|  x2

e|-----------------------------|
B|-----------------------------|
G|-----------------------------|
D|--12--10--------------10-----|
A|---------13-10--12--9-----7--|
E|-----------------------------|
+
G|-----------------------------|
D|-----------------------------|
A|-----------------------------|
E|--10-------3-------7------0--| x2

e|--------------------------|
B|--------------------------|
G|--------------------------|
D|--1111--1111--1111--1111--|  (11's)
A|--9-9---9-9---9-9---9-9---|
E|--------------------------|
+
G|--------------------------|
D|--------------------------|
A|--------------------------|
E|--2-2-222-2-222-2-222-2---| x2

e|-----------------------------|
B|-----------------------------|
G|-----------------------------|
D|--12--10--------------10-----|
A|---------13-10--12--9-----7--|
E|-----------------------------|
+
G|-----------------------------|
D|-----------------------------|
A|-----------------------------|
E|--10-------3-------7------0--| x4


chorus:
e|------------------------------------|
B|------------------------------------|
G|------------------------------------|
D|------------------------------------|
A|--8---------16-15-8---------16-15---|
E|--6---------------6-----------------|
+
G|------------------------------------|
D|------------------------------------|
A|------------------------------------|
E|--6-6-6-6-6-6-6-6-6-6-6-6-6-8-9-8---|

e|------------------------------------|
B|------------------------------------|
G|------------------------------------|
D|--12--------14-15-12--------14-15---|
A|--10--------------10----------------|
E|------------------------------------|
+
G|------------------------------------|
D|------------------------------------|
A|------------------------------------|
E|--3-3-3-3-3-3-3-3-3-3-3-3-3-4-5-7---|  whole chorus x4

end of section one (unsure about this):
e|------------------|
B|--777777777777777-|
G|--xxxxxxxxxxxxxxx-
D|--777777777777777-|  (7's)
A|------------------|
E|------------------|
+
G|------------------|
D|------------------|
A|------------------|
E|--6-6-6-6-6-6-6-6-| x4 and slide out intro drum fill

I've also tabbed the bassline to section 2 so people can have a stab at the guitar in that bit:
. = staccato
quiet bit:
G|-------------------------------------------------------------------|
D|-------------------------------------------------------------------|
A|-------------------------------------------------------------------|
E|--8---8---4---4---1---1---8---8---7---7---3---3---0---0---7---7----|
    .   .   .   .   .   .   .   .   .   .   .   .   .   .   .   .

G|-------------------------------------------------------------------|
D|-------------------------------------------------------------------|
A|-------------------------------------------------------------------|
E|--6---6---6-0-6-0-6-0-0-0-6-6-6-6-4/5-5-5-4/5-5-5-4/5-5-5-4/5-5-5--|
    .   .

both x3

loud bit: this is all tremolo picked
G|-------------------------------------------------------------------|
D|-------------------------------------------------------------------|
A|-------------------------------------------------------------------|
E|--8-8-8-8-8-8-8-8-8-8-8-8-8-8-8-8-7-7-7-7-3-3-3-3-0-0-0-0-7-7-7-7--|

G|-------------------------------------------------------------------|
D|-------------------------------------------------------------------|
A|-------------------------------------------------------------------|
E|--6-6-6-6-6-6-6-6-6-6-6-6-6-6-6-6-4/5-5-5-4/5-5-5-4/5-5-5-4/5-5-5--|


This is just the start and I'd really like to finish the whole song, so if you can 
figure any parts out, feel free to add it to this!
Добавлено: 15.04.2015
Другие материалы по этой песне:
  • Аккорды и текст

Страница создана 15.04.2015
http://primanota.ru/unwound/terminus-chords.htm
Привет, Гость.
Предлагаем пройти революционный курс по гитаре.
Подарок от PrimaNota.Ru, забирай!