PrimaNota.ru - самый крупный в мире бесплатный архив песенных текстов, аккордов, табулатур и нот


Unwound - Sensible - бас-таба, видео

Регистрация Запомнить меня
Войти через:  Facebook Google Twitter Vk Yandex Mail.ru

Unwound - Sensible - бас-таба, видео

Печатать
Просмотров: 105
Sensible
bass
|---------------------------------|
|---------------------------------|
|---------------------------2-2-0-|
|-0-3-3---3-----0-1--1--1-1-------|

|---------------------------------|
|-----------------3---3-0-----0---|
|---------5---5-0---------2-3-----|
|-0-3-3---------------------------|

|---------------------------------|
|-----7---7-7---------9---9s11-11s|
|-5-----5-----5-0-7-----7---------|
|---------------------------------|
9s11 = slide from 9 to 11
11s = slide down from 11
Добавлено: 23.06.2013
Другие материалы по этой песне:
  • Аккорды и текст

Страница создана 23.06.2013
http://primanota.ru/unwound/sensible-chords.htm
Привет, Гость.
Предлагаем пройти революционный курс по гитаре.
Подарок от PrimaNota.Ru, забирай!