PrimaNota.ru - самый крупный в мире бесплатный архив песенных текстов, аккордов, табулатур и нот


Unwound - Radio Gra - таба, видео

Регистрация Запомнить меня
Войти через:  Facebook Google Twitter Vk Yandex Mail.ru

Unwound - Radio Gra - таба, видео

Печатать
Просмотров: 57
ARTIST: Unwound
SONG: "Radio Gra"
ALBUM: Leaves Turn Inside You (2001)



TUNING: Alternate (E A D G A D)



PART I:
d|------------------------------------------------------------------------------------------------|
A|------------------------------------------------------------------------------------------------|
G|-------------3-----------------------3-----------------------2-----------------------2----------|
D|-------2-----------2-----------2-----------2-----------2-----------2-----------2-----------2----|
A|------------------------------------------------------------------------------------------------|
E|-3-----------------------3-----------------------2-----------------------2----------------------|
+
d|------------------------------------------------------------------------------------------------|
A|------------------------------------------------------------------------------------------------|
G|-------------0-----------------------0-----------------------2-----------------------2----------|
D|-------2-----------2-----------2-----------2-----------2-----------2-----------2-----------2----|
A|------------------------------------------------------------------------------------------------|
E|-0-----------------------0-----------------------2-----------------------2----------------------|



PART II:
d|------------------------------------------------------------------------------------------------|
A|-------------------------------------------------------------0-----------------------0----------|
G|-------------3-----------------------3----------------------------------------------------------|
D|-------0-----------0-----------0-----------0-----------5-----------5-----------5-----------5----|
A|------------------------------------------------------------------------------------------------|
E|-3-----------------------3-----------------------5-----------------------5----------------------|
+
d|------------------------------------------------------------------------------------------------|
A|-------------0-----------------------0-----------------------0-----------------------0----------|
G|------------------------------------------------------------------------------------------------|
D|-------5-----------5-----------5-----------5-----------3-----------3-----------3-----------3----|
A|-4-----------------------4-----------------------5-----------------------5----------------------|
E|------------------------------------------------------------------------------------------------|
+
d|------------------------------------------------------------------------------------------------|
A|-------------0-----------------------0-----------------------0-----------------------0----------|
G|------------------------------------------------------------------------------------------------|
D|-------3-----------3-----------3-----------3-----------3-----------3-----------3-----------3----|
A|-5-----------------------3-----------------------1-----------------------3----------------------|
E|------------------------------------------------------------------------------------------------|
+
d|------------------------------------------------------------------------------------------------|
A|-------------0-----------------------0-----------------------0----------------------------(0)---|
G|------------------------------------------------------------------------------------------------|
D|-------3-----------3-----------3-----------3-----2----h3-----------3-----2----h3-----0----------|
A|-0-----------------------3----------------------------------------------------------------------|
E|------------------------------------------------------------------------------------------------|



PART III:
d|------------------------------------------------------------------------------------------------|
A|-------------3-----------------------3-----------------------2-----------------------2----------|
G|-------2-----------2-----------2-----------2-----------2-----------2-----------2-----------2----|
D|------------------------------------------------------------------------------------------------|
A|------------------------------------------------------------------------------------------------|
E|-1-----------------------1-----------------------0-----------------------0----------------------|
+
d|------------------------------------------------|
A|-------------4-----------------------4----------|
G|-------2-----------2-----------2-----------2----|
D|------------------------------------------------|
A|------------------------------------------------|
E|-2-----------------------2----------------------|



PART IV:
d|------------------------------------------------------------------------------------------------|
A|-------------5-----------------5-----------------------4-----------------4----------------------|
G|------------------------------------------------------------------------------------------------|
D|-------3-----------3-----------------3-----------5-----------5-----------------5-----------7----|
A|------------------------------------------------------------------------------------------------|
E|-3-----------------------3-----------------5-----------------------5-----------------6----------|
+
d|------------------------------|
A|-7-----------------7----------|
G|------------------------------|
D|-------7-----------------7----|
A|------------------------------|
E|-------------6----------------|



SONG STRUCTURE:

PART I x 4
PART II x 1
PART III x 4
PART I x 4
PART II x 1
PART III x 4
PART IV x ad infinitum (fade out)



That's it.  Please feel free to leave any comments, questions, or requests.
Cheers!
-Bennyshambles78-


Добавлено: 29.02.2016
Другие материалы по этой песне:
  • Аккорды и текст

Страница создана 29.02.2016
http://primanota.ru/unwound/radio-gra-chords.htm
Привет, Гость.
Предлагаем пройти революционный курс по гитаре.
Подарок от PrimaNota.Ru, забирай!