PrimaNota.ru - самый крупный в мире бесплатный архив песенных текстов, аккордов, табулатур и нот


Unwound - New Energy - таба, видео

Регистрация Запомнить меня
Войти через:  Facebook Google Twitter Vk Yandex Mail.ru

Unwound - New Energy - таба, видео

Печатать
Просмотров: 52
New Energy

Intro
guitar
|-10-----10---10--10-----10---10--10-----10---10--10-----10---10--|
|-8------8----8---8------8----8---8------8----8---8------8----8---|
|-8------8----8---8------8----8---8------8----8---8------8----8---|
|-----0--0--0-0-0-0---0--0--0-0-0-0---0--0--0-0-0-0---0--0--0-0-0-|
|-----------------------------------------------------------------|
|-----------------------------------------------------------------|

Interlude
guitar
|-----------------------------------------------------------------|
|-0-------------------------------0-------------------------------|
|-4-------------------------------4-------------------------------|
|-0-------------------------------0-------------------------------|
|-2-------------------------------2-------------------------------|
|-----------------------------------------------------------------|

|-----------------------------------------------------------------|
|-0-------------------------------0-------------------------------|
|-4-------------------------------4-------------------------------|
|-0-------------------------------0-------------------------------|
|-2-------------------------------2-------------------------------|
|-----------------------------------------------------------------|

bass (Drop-D tuning, low to high, D A D G)
|-----------------------------------------------------------------|
|-----------------------------------------------------------------|
|-----------------------------------------------------------------|
|-0-0-0-1-1-1-5-5-5-4-4-4-0-0-1-1-0-0-0-1-1-1-5-5-5-4-4-4-0-0-1-1-|

|-----------------------------------------------------------------|
|-----------------------------------------------------------------|
|-----------------------------------------------------------------|
|-0-0-0-1-1-1-5-5-5-4-4-4-0-0-1-1-0-0-0-1-1-1-5-5-5-4-4-4-0-0-1-1-|

Verse
guitar
 "where's your energy             there's no energy..."
|-10----------10----------10------10----------10----------10------|
|-8-----------8-----------8-------8-----------8-----------8-------|
|-8-----------8-----------8-------8-----------8-----------8-------|
|-0-----0-----0-----0-----0---0---0-----0-----0-----0-----0---0---|
|-----------------------------------------------------------------|
|-----------------------------------------------------------------|
 
bass
|-----------------------------------------------------------------|
|-------------5-5-5-4-4-4---------------------5-5-5-4-4-4---------|
|-5-5-5-6-6-6-------------5-5-6-6-5-5-5-6-6-6-------------5-5-6-6-|
|-----------------------------------------------------------------|

guitar
 "desperate kids                  nasty / sick..."
|-5-----5-----5-----5-----5---5---5-----5-----5-----5-----5---5---|
|-0-----0-----0-----0-----0---0---0-----0-----0-----0-----0---0---|
|-2-----2-----2-----2-----2---2---2-----2-----2-----2-----2---2---|
|-----------------------------------------------------------------|
|-----------------------------------------------------------------|
|-----------------------------------------------------------------|

bass
|-----------------------------------------------------------------|
|-----------------------------------------------------------------|
|-0-----0-----0-----0-----0---0---0-----0-----0-----0-----0---0---|
|-----------------------------------------------------------------|

guitar
 "state your age                  set the stage..."
|-10----------10----------10------10----------10----------10------|
|-8-----------8-----------8-------8-----------8-----------8-------|
|-8-----------8-----------8-------8-----------8-----------8-------|
|-0-----0-----0-----0-----0---0---0-----0-----0-----0-----0---0---|
|-----------------------------------------------------------------|
|-----------------------------------------------------------------|

bass
|-----------------------------------------------------------------|
|-----------------------------------------------------------------|
|-5-----------5-----------5-------5-----------5-----------5-------|
|-------0-----------0---------0---------0-----------0---------0---|

Interlude again

Verse again

Interlude (tremolo bar dives)

Verse again, with a change at the end. Instead of playing the
"state your age" part, play the "what it is" part, below:
guitar 1
 "what  it    is                  what  it    is..."
|-7-----5-----3-----5-----3---5---7-----5-----3-----5-----3---5---|
|-0-----0-----0-----0-----0---0---0-----0-----0-----0-----0---0---|
|-----------------------------------------------------------------|
|-----------------------------------------------------------------|
|-----------------------------------------------------------------|
|-----------------------------------------------------------------|

guitar 2
|-5-----5-----5-----5-----5---5---5-----5-----5-----5-----5---5---|
|-0-----0-----0-----0-----0---0---0-----0-----0-----0-----0---0---|
|-2-----2-----2-----2-----2---2---2-----2-----2-----2-----2---2---|
|-----------------------------------------------------------------|
|-----------------------------------------------------------------|
|-----------------------------------------------------------------|

bass
|-----------------------------------------------------------------|
|-----------------------------------------------------------------|
|-0-----0-----0-----0-----0---0---0-----0-----0-----0-----0---0---|
|-----------------------------------------------------------------|

The last chord
guitar
|---|
|---|
|-2-|
|---|
|---|
|---|

bass
|---|
|---|
|---|
|-0-|
Добавлено: 01.10.2013
Другие материалы по этой песне:
  • Аккорды и текст

Страница создана 01.10.2013
http://primanota.ru/unwound/new-energy-chords.htm
Привет, Гость.
Предлагаем пройти революционный курс по гитаре.
Подарок от PrimaNota.Ru, забирай!