PrimaNota.ru - самый крупный в мире бесплатный архив песенных текстов, аккордов, табулатур и нот


Unwound - Miserific Condition - таба, видео

Регистрация Запомнить меня
Войти через:  Facebook Google Twitter Vk Yandex Mail.ru

Unwound - Miserific Condition - таба, видео

Печатать
Просмотров: 75
Miserific Condition

the guitar on the record is tuned down a half-step (D#, G#, C#, F#, A#, D#)
the bass is tuned down a half-step, with the low string tuned down a whole 
step (D, G#, C#, F#)

intro
guitar
|---------------------------------|
|---------------------------------|
|---------------------------------|
|-----2-----2---------0-------0---|
|-----1-----1-------1-------1-----|
|-0-0---0-0---0-1---------2-------|

bass
|---------------------------------|
|---------------------------------|
|-1-1-1-----1---------------------|
|---------------2---2----3----3---|

part A
guitar
|---------------------------------|
|---------------------------------|
|---------------------------------|
|-2-2-2-2-2-2-2-0---0-0--0--0-0---|
|-1-1-1-1-1-1-1-1---1-1--1--1-1---|
|-0-0-0-0-0-0-0-1---1-1--2--2-2---|


bass
|---------------------------------|
|---------------------------------|
|-1---1---1-1-1-------------------|
|---------------2---2---3----3----|

part B
guitar
|---------------------------------|
|---------------------------------|
|---------------------------------|
|---------------------------------|
|---------------------------------|
|---2---2---2---2---2---2---2---2-|

bass
|---------------------------------|
|---------------------------------|
|---------------------------------|
|--15--15--15--15--15--15--15--15-|

part C
guitar
|-7---7---7-7-7-10--10--11---11---|
|---------------------------------|
|-4---4---4-4-4-7---7---8----8----|
|---------------------------------|
|---------------------------------|
|---------------------------------|

bass
|---------------------------------|
|---------------------------------|
|---------------------------------|
|-4---4---4-4-4-0---0---1----1----|

part D
guitar - a bunch of chunking noise
bass - another bunch of chunking noise

part E
guitar
|---------------------------------|
|---------------------------------|
|-4b------------------------------|
|-2b------------------------------|
|---------------------------------|
|---------------------------------|
b = bend the string

bass
|---------------------------------|
|---------------------------------|
|---------------------------------|
|-1b------------------------------|

order
intro 6 times, part A 4 times, B twice, A 4 times, B twice, C 4 times, B 
twice, A 4 times, B twice, C 4 times, D, E 4 times, A 4 times, B twice, 
A 4 times
Добавлено: 21.09.2013
Другие материалы по этой песне:
  • Аккорды и текст

Страница создана 21.09.2013
http://primanota.ru/unwound/miserific-condition-chords.htm
Привет, Гость.
Предлагаем пройти революционный курс по гитаре.
Подарок от PrimaNota.Ru, забирай!