PrimaNota.ru - самый крупный в мире бесплатный архив песенных текстов, аккордов, табулатур и нот


Unwound - Laszlo - таба, бас-таба, видео

Регистрация Запомнить меня
Войти через:  Facebook Google Twitter Vk Yandex Mail.ru

Unwound - Laszlo - таба, бас-таба, видео

Печатать
Просмотров: 39
ARTIST: Unwound
SONG: "Laszlo"
ALBUM: Empire (2015), Troubleman Mix-Tape (2001)



TUNING: Alternate (F# A E G A E)



INTRO:
e |------------------------------------------------------------------------------------------------||
A |-10----10----10----10----10----10----10----10----10----10----10----10----10----10----10----10---||
G |-12----0-----12----11----0-----11----12----0-----12----0-----12----11----0-----11----12----0----|| x 4
E |------------------------------------------------------------------------------------------------||
A |------------------------------------------------------------------------------------------------||
F#|------------------------------------------------------------------------------------------------||



VERSE I:
e |------------------------------------------------------------------------------------------------||
A |-10----10----10----10----10----10----10----10----10----10----10----10----10----10----10----10---||
G |-12----0-----12----11----0-----11----12----0-----12----0-----12----11----0-----11----12----0----|| x 4
E |------------------------------------------------------------------------------------------------||
A |------------------------------------------------------------------------------------------------||
F#|------------------------------------------------------------------------------------------------||
+
e |------------------------------------------------------------------------------------------------|
A |-10----10----10----10----10----10----10----10----10----10----10----10----10----10----10----10---|
G |-12----12----12----0-----12----12----12----0-----12----12----12----12----12----12----12----0----|
E |------------------------------------------------------------------------------------------------|
A |------------------------------------------------------------------------------------------------|
F#|------------------------------------------------------------------------------------------------|



PRE-CHORUS:
e |-12----0-----------------------------12p13-0-----12p13-0-----12----0----------------------------|
A |-------------12----10----------10----------------------------------------12----10----------10---|
G |------------------------------------------------------------------------------------------------|
E |------------------------------------------------------------------------------------------------|
A |------------------------------------------------------------------------------------------------|
F#|------------------------------------------------------------------------------------------------|
+
e |-12p13-0-----12p13-0-----12----0-----------------------------12p13-0-----12p13-0-----12----0----|
A |-------------------------------------12----10----------10---------------------------------------|
G |------------------------------------------------------------------------------------------------|
E |------------------------------------------------------------------------------------------------|
A |------------------------------------------------------------------------------------------------|
F#|------------------------------------------------------------------------------------------------|
+
e |-------------------------12p13-0-----12p13-0-----12----0-----------------------------12p13-0----|
A |-12----10----------10----------------------------------------12----10----------10---------------|
G |------------------------------------------------------------------------------------------------|
E |------------------------------------------------------------------------------------------------|
A |------------------------------------------------------------------------------------------------|
F#|------------------------------------------------------------------------------------------------|
+
e |-12p13-0-----12----0-----------------------------12p13-0-----12p13-0-----12----0----------------|
A |-------------------------12----10----------10----------------------------------------12----10---|
G |------------------------------------------------------------------------------------------------|
E |------------------------------------------------------------------------------------------------|
A |------------------------------------------------------------------------------------------------|
F#|------------------------------------------------------------------------------------------------|
+
e |-------------12p13-0-----12p13-0-----12----0-----------------------------12p13-0-----12p13-0----|
A |-------10----------------------------------------12----10----------10---------------------------|
G |------------------------------------------------------------------------------------------------|
E |------------------------------------------------------------------------------------------------|
A |------------------------------------------------------------------------------------------------|
F#|------------------------------------------------------------------------------------------------|
+
e |-12----0-----------------12----0-----------------12----0-----------------12----0----------------|
A |-------------12----------------------14----------------------15----------------------14---------|
G |------------------------------------------------------------------------------------------------|
E |------------------------------------------------------------------------------------------------|
A |------------------------------------------------------------------------------------------------|
F#|------------------------------------------------------------------------------------------------|
+
e |-12----0-----------------12----0-----------------12----0-----------------12----0----------------|
A |-------------12----------------------14----------------------15----------------------14---------|
G |-------------------------------------12----------------------11----------------------12---------|
E |------------------------------------------------------------------------------------------------|
A |------------------------------------------------------------------------------------------------|
F#|------------------------------------------------------------------------------------------------|



CHORUS I:
e |------------------------------------------------------------------------------------------------|
A |------------------------------------------------------------------------------------------------|
G |-------14----12----------14----12----------------------9-----7-----------9-----7----------------|
E |------------------------------------------------------------------------------------------------|
A |-12----------------12----------------12\---------9-----------------9-----------------9----------|
F#|------------------------------------------------------------------------------------------------|
+
e |------------------------------------------------------------------------------------------------|
A |------------------------------------------------------------------------------------------------|
G |-------9-----7-----------9-----7-----------------------11----12----------12----11---------------|
E |------------------------------------------------------------------------------------------------|
A |-8-----------------8-----------------8/----------10----------------10----------------10/--------|
F#|------------------------------------------------------------------------------------------------|
+
e |------------------------------------------------------------------------------------------------|
A |------------------------------------------------------------------------------------------------|
G |-------14----12----------14----12----------------------9-----7-----------9-----7----------------|
E |------------------------------------------------------------------------------------------------|
A |-12----------------12----------------12\---------9-----------------9-----------------9----------|
F#|------------------------------------------------------------------------------------------------|
+
e |------------------------------------------------------------------------------------------------|
A |------------------------------------------------------------------------------------------------|
G |-------9-----7-----------9-----7-----------------------11----12----------12----11---------------|
E |------------------------------------------------------------------------------------------------|
A |-8-----------------8-----------------8/----------10----------------10----------------10\--------|
F#|------------------------------------------------------------------------------------------------|
+
e |------------------------------------------------------------------------------------------------|
A |------------------------------------------------------------------------------------------------|
G |------------------------------------------------------------------------------------------------|
E |-------------------------------------------------0----------------------------------------------|
A |-0----------------------------------------------------------------------------------------------|
F#|------------------------------------------------------------------------------------------------|
+
e |------------------------------------------------------------------------------------------------|
A |-14~---------------------------------------------15----14----13----12---------------------------|
G |-------------------------------------------------------------------------------12\--------------|
E |------------------------------------------------------------------------------------------------|
A |------------------------------------------------------------------------------------------------|
F#|------------------------------------------------------------------------------------------------|



VERSE II:
e |------------------------------------------------------------------------------------------------||
A |-10----10----10----10----10----10----10----10----10----10----10----10----10----10----10----10---||
G |-12----0-----12----11----0-----11----12----0-----12----0-----12----11----0-----11----12----0----|| x 4
E |------------------------------------------------------------------------------------------------||
A |------------------------------------------------------------------------------------------------||
F#|------------------------------------------------------------------------------------------------||
+
e |------------------------------------------------------------------------------------------------|
A |-10----10----10----10----10----10----10----10----10----10----10----10----10----10----10----10---|
G |-12----12----12----0-----12----12----12----0-----12----12----12----0-----12----0-----12----0----|
E |------------------------------------------------------------------------------------------------|
A |------------------------------------------------------------------------------------------------|
F#|------------------------------------------------------------------------------------------------|



CHORUS II:
e |------------------------------------------------------------------------------------------------|
A |------------------------------------------------------------------------------------------------|
G |-------14----12----------14----12----------------------9-----7-----------9-----7----------------|
E |------------------------------------------------------------------------------------------------|
A |-12----------------12----------------12\---------9-----------------9-----------------9----------|
F#|------------------------------------------------------------------------------------------------|
+
e |------------------------------------------------------------------------------------------------|
A |------------------------------------------------------------------------------------------------|
G |-------9-----7-----------9-----7-----------------------11----12----------12----11---------------|
E |------------------------------------------------------------------------------------------------|
A |-8-----------------8-----------------8/----------10----------------10----------------10/--------|
F#|------------------------------------------------------------------------------------------------|
+
e |------------------------------------------------------------------------------------------------|
A |------------------------------------------------------------------------------------------------|
G |-------14----12----------14----12----------------------9-----7-----------9-----7----------------|
E |------------------------------------------------------------------------------------------------|
A |-12----------------12----------------12\---------9-----------------9-----------------9----------|
F#|------------------------------------------------------------------------------------------------|
+
e |------------------------------------------------------------------------------------------------|
A |------------------------------------------------------------------------------------------------|
G |-------9-----7-----------9-----7-----------------------11----12----------12----11---------------|
E |------------------------------------------------------------------------------------------------|
A |-8-----------------8-----------------8/----------10----------------10----------------10/--------|
F#|------------------------------------------------------------------------------------------------|
+
e |------------------------------------------------------------------------------------------------|
A |------------------------------------------------------------------------------------------------|
G |-------14----12----------14----12----------------------9-----7-----------9-----7----------------|
E |------------------------------------------------------------------------------------------------|
A |-12----------------12----------------12\---------9-----------------9-----------------9----------|
F#|------------------------------------------------------------------------------------------------|
+
e |------------------------------------------------------------------------------------------------|
A |------------------------------------------------------------------------------------------------|
G |-------9-----7-----------9-----7-----------------------11----12----------12----11---------------|
E |------------------------------------------------------------------------------------------------|
A |-8-----------------8-----------------8/----------10----------------10----------------10/--------|
F#|------------------------------------------------------------------------------------------------|
+
e |------------------------------------------------------------------------------------------------|
A |------------------------------------------------------------------------------------------------|
G |-------14----12----------14----12----------------------9-----7-----------9-----7----------------|
E |------------------------------------------------------------------------------------------------|
A |-12----------------12----------------12\---------9-----------------9-----------------9----------|
F#|------------------------------------------------------------------------------------------------|
+
e |------------------------------------------------------------------------------------------------|
A |------------------------------------------------------------------------------------------------|
G |-------9-----7-----------9-----7-----------------------11----12----------12----11---------------|
E |------------------------------------------------------------------------------------------------|
A |-8-----------------8-----------------8/----------10----------------10----------------10\--------|
F#|------------------------------------------------------------------------------------------------|
+
e |------------------------------------------------------------------------------------------------|
A |------------------------------------------------------------------------------------------------|
G |------------------------------------------------------------------------------------------------|
E |-------------------------------------------------0----------------------------------------------|
A |-0----------------------------------------------------------------------------------------------|
F#|------------------------------------------------------------------------------------------------|
+
e |------------------------------------------------------------------------------------------------|
A |-14~---------------------------------------------15----14----13----12---------------------------|
G |-------------------------------------------------------------------------------12\--------------|
E |------------------------------------------------------------------------------------------------|
A |------------------------------------------------------------------------------------------------|
F#|------------------------------------------------------------------------------------------------|



BRIDGE:
e |------------------------------------------------------------------------------------------------|
A |-10----10----10----10----10----10----10----10----10----10----10----10----10----10----10----10---|
G |-9-----0-----9-----0-----9-----0-----9-----0-----9-----0-----9-----0-----9-----0-----9-----0----|
E |------------------------------------------------------------------------------------------------|
A |------------------------------------------------------------------------------------------------|
F#|------------------------------------------------------------------------------------------------|
+
e |------------------------------------------------------------------------------------------------|
A |-9-----9-----9-----9-----9-----9-----9-----9-----9-----9-----9-----9-----9-----9-----9-----9----|
G |-7-----0-----7-----0-----7-----0-----7-----0-----7-----0-----7-----0-----7-----0-----7-----0----|
E |------------------------------------------------------------------------------------------------|
A |------------------------------------------------------------------------------------------------|
F#|------------------------------------------------------------------------------------------------|
+
e |------------------------------------------------------------------------------------------------|
A |-7-----7-----7-----7-----7-----0-----0-----0-----7-----7-----7-----7-----7-----0-----0-----0----|
G |-6-----6-----6-----6-----6-----7-----7-----7-----6-----6-----6-----6-----6-----7-----7-----7----|
E |------------------------------------------------------------------------------------------------|
A |------------------------------------------------------------------------------------------------|
F#|------------------------------------------------------------------------------------------------|
+
e |------------------------------------------------------------------------------------------------|
A |-3-----3-----3-----3-----3-----3-----3-----3----------------------------------------------------|
G |-4-----4-----4-----4-----4-----4-----4-----4-----4-----5-----4-----2-----------2-----0----------|
E |-------------------------------------------------------------------------3-----2-----0----------|
A |------------------------------------------------------------------------------------------------|
F#|------------------------------------------------------------------------------------------------|
+
e |------------------------------------------------------------------------------------------------|
A |-10----10----10----10----10----10----10----10----10----10----10----10----10----10----10----10---|
G |-9-----0-----9-----0-----9-----0-----9-----0-----9-----0-----9-----0-----9-----0-----9-----0----|
E |------------------------------------------------------------------------------------------------|
A |------------------------------------------------------------------------------------------------|
F#|------------------------------------------------------------------------------------------------|
+
e |------------------------------------------------------------------------------------------------|
A |-9-----9-----9-----9-----9-----9-----9-----9-----9-----9-----9-----9-----9-----9-----9-----9----|
G |-7-----0-----7-----0-----7-----0-----7-----0-----7-----0-----7-----0-----7-----0-----7-----0----|
E |------------------------------------------------------------------------------------------------|
A |------------------------------------------------------------------------------------------------|
F#|------------------------------------------------------------------------------------------------|
+
e |------------------------------------------------------------------------------------------------|
A |-7-----7-----7-----7-----7-----0-----0-----0-----7-----7-----7-----7-----7-----0-----0-----0----|
G |-6-----6-----6-----6-----6-----7-----7-----7-----6-----6-----6-----6-----6-----7-----7-----7----|
E |------------------------------------------------------------------------------------------------|
A |------------------------------------------------------------------------------------------------|
F#|------------------------------------------------------------------------------------------------|
+
e |------------------------------------------------------------------------------------------------|
A |-3-----3-----3-----3-----3-----3-----3-----3----------------------------------------------------|
G |-4-----4-----4-----4-----4-----4-----4-----4-----4-----5-----4-----2-----------2-----0----------|
E |-------------------------------------------------------------------------3-----2-----0----------|
A |------------------------------------------------------------------------------------------------|
F#|------------------------------------------------------------------------------------------------|



OUTRO:
 Guitar R
e |------------------------------------------------------------------------------------------------|
A |-10----10----10----10----10----#----------------------------------------------------------------|
G |-9-----9-----9-----9-----9-----#----------------------------------------------------------------|
E |------------------------------------------------------------------------------------------------|
A |------------------------------------------------------------------------------------------------|
F#|------------------------------------------------------------------------------------------------|
|                                                                                                  |
|                                                                                                  |
|Guitar L                                                                                          |
e |------------------------------------------------------------------------------------------------|
A |-------------------------------------------------10----10----10----10----10----#----------------|
G |-------------------------------------------------9-----9-----9-----9-----9-----#----------------|
E |------------------------------------------------------------------------------------------------|
A |------------------------------------------------------------------------------------------------|
F#|------------------------------------------------------------------------------------------------|
+
 Guitar R
e |------------------------------------------------------------------------------------------------|
A |-9-----9-----9-----9-----9-----#----------------------------------------------------------------|
G |-7-----7-----7-----7-----7-----#----------------------------------------------------------------|
E |------------------------------------------------------------------------------------------------|
A |------------------------------------------------------------------------------------------------|
F#|------------------------------------------------------------------------------------------------|
|                                                                                                  |
|                                                                                                  |
|Guitar L                                                                                          |
e |------------------------------------------------------------------------------------------------|
A |-------------------------------------------------9-----9-----9-----9-----9-----#----------------|
G |-------------------------------------------------7-----7-----7-----7-----7-----#----------------|
E |------------------------------------------------------------------------------------------------|
A |------------------------------------------------------------------------------------------------|
F#|------------------------------------------------------------------------------------------------|
+
 Guitar R
e |------------------------------------------------------------------------------------------------|
A |-7-----7-----7-----7-----7-----#----------------------------------------------------------------|
G |-6-----6-----6-----6-----6-----#----------------------------------------------------------------|
E |------------------------------------------------------------------------------------------------|
A |------------------------------------------------------------------------------------------------|
F#|------------------------------------------------------------------------------------------------|
|                                                                                                  |
|                                                                                                  |
|Guitar L                                                                                          |
e |------------------------------------------------------------------------------------------------|
A |-------------------------------------------------7-----7-----7-----7-----7-----#----------------|
G |-------------------------------------------------6-----6-----6-----6-----6-----#----------------|
E |------------------------------------------------------------------------------------------------|
A |------------------------------------------------------------------------------------------------|
F#|------------------------------------------------------------------------------------------------|
+
 Guitar R
e |------------------------------------------------------------------------------------------------|
A |-3-----------3-----------3-----------3-----------3-----------3-----------3--3--3--3--3----------|
G |-4-----x-----4-----x-----4-----x-----4-----x-----4-----x-----4-----x-----4--4--4--4--4-----x----|
E |-------0-----------0-----------0-----------0-----------0-----------0-----------------------0----|
A |------------------------------------------------------------------------------------------------|
F#|------------------------------------------------------------------------------------------------|
|                                                                                                  |
|                                                                                                  |
|Guitar L                                                                                          |
e |------------------------------------------------------------------------------------------------|
A |-3-----------3-----------3-----------3-----------3-----------3-----------3--3--3--3--3----------|
G |-4-----x-----4-----x-----4-----x-----4-----x-----4-----x-----4-----x-----4--4--4--4--4-----x----|
E |-------0-----------0-----------0-----------0-----------0-----------0-----------------------0----|
A |------------------------------------------------------------------------------------------------|
F#|------------------------------------------------------------------------------------------------|
+
 Guitar R
e |-------------------------12----#----------------------------------------------------------------|
A |-10----#-----------------0-----#----------------------------------------------------------------|
G |-9-----#----------------------------------------------------------------------------------------|
E |------------------------------------------------------------------------------------------------|
A |------------------------------------------------------------------------------------------------|
F#|------------------------------------------------------------------------------------------------|
|                                                                                                  |
|                                                                                                  |
|Guitar L                                                                                          |
e |------------------------------------------------------------------------------------------------|
A |-------------------------------------------------15----#-----------------17\--------------------|
G |-------------------------------------------------14----#-----------------14\--------------------|
E |------------------------------------------------------------------------------------------------|
A |------------------------------------------------------------------------------------------------|
F#|------------------------------------------------------------------------------------------------|
+
 Guitar R
e |------------------------------------------------------------------------------------------------|
A |-9-----#-----------------9-----#----------------------------------------------------------------|
G |-7-----#-----------------7-----#----------------------------------------------------------------|
E |------------------------------------------------------------------------------------------------|
A |------------------------------------------------------------------------------------------------|
F#|------------------------------------------------------------------------------------------------|
|                                                                                                  |
|                                                                                                  |
|Guitar L                                                                                          |
e |------------------------------------------------------------------------------------------------|
A |-------------------------------------------------14----#-----------------15\--------------------|
G |-------------------------------------------------12----#-----------------12\--------------------|
E |------------------------------------------------------------------------------------------------|
A |------------------------------------------------------------------------------------------------|
F#|------------------------------------------------------------------------------------------------|
+
 Guitar R
e |-------------------------7-----#-----------------------------------------7-----#----------------|
A |-7-----#-----------------7-----#-----------------7-----#-----------------7-----#----------------|
G |-6-----#-----------------------------------------6-----#----------------------------------------|
E |------------------------------------------------------------------------------------------------|
A |------------------------------------------------------------------------------------------------|
F#|------------------------------------------------------------------------------------------------|
|                                                                                                  |
|                                                                                                  |
|Guitar L                                                                                          |
e |-------------------------7-----#-----------------------------------------7-----#----------------|
A |-7-----#-----------------7-----#-----------------7-----#-----------------7-----#----------------|
G |-6-----#-----------------------------------------6-----#----------------------------------------|
E |------------------------------------------------------------------------------------------------|
A |------------------------------------------------------------------------------------------------|
F#|------------------------------------------------------------------------------------------------|
+
 Guitar R
e |------------------------------------------------------------------------------------------------|
A |-3-----#-----------------------------------------3-----#----------------------------------------|
G |-4-----#-----------------------------------------4-----#----------------------------------------|
E |------------------------------------------------------------------------------------------------|
A |-------------------------3-----#-----------------------------------------2-----#----------------|
F#|------------------------------------------------------------------------------------------------|
|                                                                                                  |
|                                                                                                  |
|Guitar L                                                                                          |
e |------------------------------------------------------------------------------------------------|
A |-3-----#-----------------------------------------3-----#----------------------------------------|
G |-4-----#-----------------------------------------4-----#----------------------------------------|
E |------------------------------------------------------------------------------------------------|
A |-------------------------3-----#-----------------------------------------2-----#----------------|
F#|------------------------------------------------------------------------------------------------|
+
 Guitar R
e |-------------------------12----#----------------------------------------------------------------|
A |-10----#-----------------0-----#----------------------------------------------------------------|
G |-9-----#----------------------------------------------------------------------------------------|
E |------------------------------------------------------------------------------------------------|
A |------------------------------------------------------------------------------------------------|
F#|------------------------------------------------------------------------------------------------|
|                                                                                                  |
|                                                                                                  |
|Guitar L                                                                                          |
e |------------------------------------------------------------------------------------------------|
A |-------------------------------------------------15----#-----------------17\--------------------|
G |-------------------------------------------------14----#-----------------14\--------------------|
E |------------------------------------------------------------------------------------------------|
A |------------------------------------------------------------------------------------------------|
F#|------------------------------------------------------------------------------------------------|
+
 Guitar R
e |------------------------------------------------------------------------------------------------|
A |-9-----#-----------------9-----#----------------------------------------------------------------|
G |-7-----#-----------------7-----#----------------------------------------------------------------|
E |------------------------------------------------------------------------------------------------|
A |------------------------------------------------------------------------------------------------|
F#|------------------------------------------------------------------------------------------------|
|                                                                                                  |
|                                                                                                  |
|Guitar L                                                                                          |
e |------------------------------------------------------------------------------------------------|
A |-------------------------------------------------14----#-----------------15\--------------------|
G |-------------------------------------------------12----#-----------------12\--------------------|
E |------------------------------------------------------------------------------------------------|
A |------------------------------------------------------------------------------------------------|
F#|------------------------------------------------------------------------------------------------|
+
 Guitar R
e |-------------------------7-----#-----------------------------------------7-----#----------------|
A |-7-----#-----------------7-----#-----------------7-----#-----------------7-----#----------------|
G |-6-----#-----------------------------------------6-----#----------------------------------------|
E |------------------------------------------------------------------------------------------------|
A |------------------------------------------------------------------------------------------------|
F#|------------------------------------------------------------------------------------------------|
|                                                                                                  |
|                                                                                                  |
|Guitar L                                                                                          |
e |-------------------------7-----#-----------------------------------------7-----#----------------|
A |-7-----#-----------------7-----#-----------------7-----#-----------------7-----#----------------|
G |-6-----#-----------------------------------------6-----#----------------------------------------|
E |------------------------------------------------------------------------------------------------|
A |------------------------------------------------------------------------------------------------|
F#|------------------------------------------------------------------------------------------------|
+
 Guitar R
e |------------------------------------------------------------------------------------------------|
A |-3-----#----------------------------------------------------------------------------------------|
G |-4-----#-----------------------------------------4-----5-----4-----0----------------------------|
E |------------------------------------------------------------------------------------------------|
A |-------------------------3-----#-----------------------------------------3-----2-----0----------|
F#|------------------------------------------------------------------------------------------------|
|                                                                                                  |
|                                                                                                  |
|Guitar L                                                                                          |
e |------------------------------------------------------------------------------------------------|
A |-3-----#----------------------------------------------------------------------------------------|
G |-4-----#-----------------------------------------4-----5-----4-----0----------------------------|
E |------------------------------------------------------------------------------------------------|
A |-------------------------3-----#-----------------------------------------3-----2-----0----------|
F#|------------------------------------------------------------------------------------------------|
+
 Guitar R
e |-------------------------12----#----------------------------------------------------------------|
A |-10----#-----------------0-----#----------------------------------------------------------------|
G |-9-----#----------------------------------------------------------------------------------------|
E |------------------------------------------------------------------------------------------------|
A |------------------------------------------------------------------------------------------------|
F#|------------------------------------------------------------------------------------------------|
|                                                                                                  |
|                                                                                                  |
|Guitar L                                                                                          |
e |------------------------------------------------------------------------------------------------|
A |-------------------------------------------------15----#-----------------17\--------------------|
G |-------------------------------------------------14----#-----------------14\--------------------|
E |------------------------------------------------------------------------------------------------|
A |------------------------------------------------------------------------------------------------|
F#|------------------------------------------------------------------------------------------------|
+
 Guitar R
e |------------------------------------------------------------------------------------------------|
A |-9-----#-----------------9-----#----------------------------------------------------------------|
G |-7-----#-----------------7-----#----------------------------------------------------------------|
E |------------------------------------------------------------------------------------------------|
A |------------------------------------------------------------------------------------------------|
F#|------------------------------------------------------------------------------------------------|
|                                                                                                  |
|                                                                                                  |
|Guitar L                                                                                          |
e |------------------------------------------------------------------------------------------------|
A |-------------------------------------------------14----#-----------------15\--------------------|
G |-------------------------------------------------12----#-----------------12\--------------------|
E |------------------------------------------------------------------------------------------------|
A |------------------------------------------------------------------------------------------------|
F#|------------------------------------------------------------------------------------------------|
+
 Guitar R
e |-------------------------7-----#-----------------------------------------7-----#----------------|
A |-7-----#-----------------7-----#-----------------7-----#-----------------7-----#----------------|
G |-6-----#-----------------------------------------6-----#----------------------------------------|
E |------------------------------------------------------------------------------------------------|
A |------------------------------------------------------------------------------------------------|
F#|------------------------------------------------------------------------------------------------|
|                                                                                                  |
|                                                                                                  |
|Guitar L                                                                                          |
e |-------------------------7-----#-----------------------------------------7-----#----------------|
A |-7-----#-----------------7-----#-----------------7-----#-----------------7-----#----------------|
G |-6-----#-----------------------------------------6-----#----------------------------------------|
E |------------------------------------------------------------------------------------------------|
A |------------------------------------------------------------------------------------------------|
F#|------------------------------------------------------------------------------------------------|
+
 Guitar R
e |------------------------------------------------------------------------------------------------|
A |-3-----#----------------------------------------------------------------------------------------|
G |-4-----#-----------------------------------------4-----5-----4----------------------------------|
E |------------------------------------------------------------------------------------------------|
A |-------------------------3-----#-----------------------------------0-----3-----2-----0----------|
F#|------------------------------------------------------------------------------------------------|
|                                                                                                  |
|                                                                                                  |
|Guitar L                                                                                          |
e |------------------------------------------------------------------------------------------------|
A |-3-----#----------------------------------------------------------------------------------------|
G |-4-----#-----------------------------------------4-----5-----4-----0----------------------------|
E |------------------------------------------------------------------------------------------------|
A |-------------------------3-----#-----------------------------------------3-----2-----0----------|
F#|------------------------------------------------------------------------------------------------|
+
 Guitar R
e |-------------------------12----#----------------------------------------------------------------|
A |-10----#-----------------0-----#----------------------------------------------------------------|
G |-9-----#----------------------------------------------------------------------------------------|
E |------------------------------------------------------------------------------------------------|
A |------------------------------------------------------------------------------------------------|
F#|------------------------------------------------------------------------------------------------|
|                                                                                                  |
|                                                                                                  |
|Guitar L                                                                                          |
e |------------------------------------------------------------------------------------------------|
A |-------------------------------------------------15----#-----------------17\--------------------|
G |-------------------------------------------------14----#-----------------14\--------------------|
E |------------------------------------------------------------------------------------------------|
A |------------------------------------------------------------------------------------------------|
F#|------------------------------------------------------------------------------------------------|
+
 Guitar R
e |------------------------------------------------------------------------------------------------|
A |-9-----#-----------------9-----#----------------------------------------------------------------|
G |-7-----#-----------------7-----#----------------------------------------------------------------|
E |------------------------------------------------------------------------------------------------|
A |------------------------------------------------------------------------------------------------|
F#|------------------------------------------------------------------------------------------------|
|                                                                                                  |
|                                                                                                  |
|Guitar L                                                                                          |
e |------------------------------------------------------------------------------------------------|
A |-------------------------------------------------14----#-----------------15\--------------------|
G |-------------------------------------------------12----#-----------------12\--------------------|
E |------------------------------------------------------------------------------------------------|
A |------------------------------------------------------------------------------------------------|
F#|------------------------------------------------------------------------------------------------|
+
 Guitar R
e |-------------------------7-----#-----------------------------------------7-----#----------------|
A |-7-----#-----------------7-----#-----------------7-----#-----------------7-----#----------------|
G |-6-----#-----------------------------------------6-----#----------------------------------------|
E |------------------------------------------------------------------------------------------------|
A |------------------------------------------------------------------------------------------------|
F#|------------------------------------------------------------------------------------------------|
|                                                                                                  |
|                                                                                                  |
|Guitar L                                                                                          |
e |-------------------------7-----#-----------------------------------------7-----#----------------|
A |-7-----#-----------------7-----#-----------------7-----#-----------------7-----#----------------|
G |-6-----#-----------------------------------------6-----#----------------------------------------|
E |------------------------------------------------------------------------------------------------|
A |------------------------------------------------------------------------------------------------|
F#|------------------------------------------------------------------------------------------------|
+
 Guitar R
e |-------------------------0-----------------------------------------------0----------------------|
A |-------------3-----------------------3-----------------------3-----------------------3----------|
G |/4-----------------------------------------------4----------------------------------------------|
E |------------------------------------------------------------------------------------------------|
A |------------------------------------------------------------------------------------------------|
F#|------------------------------------------------------------------------------------------------|
|                                                                                                  |
|                                                                                                  |
|Guitar L                                                                                          |
e |-------------------------0-----------------------------------------------0----------------------|
A |-------------3-----------------------3-----------------------3-----------------------3----------|
G |/4-----------------------------------------------4----------------------------------------------|
E |------------------------------------------------------------------------------------------------|
A |------------------------------------------------------------------------------------------------|
F#|------------------------------------------------------------------------------------------------|
+
 Guitar R
e |------------------------------------------------------------------------------------------------|
A |------------------------------------------------------------------------------------------------|
G |-------------------------------------------4-----/----(14)--------------------------------------|
E |------------------------------------------------------------------------------------------------|
A |-0----------------------------------------------------------------------------------------------|
F#|------------------------------------------------------------------------------------------------|
|                                                                                                  |
|                                                                                                  |
|Guitar L                                                                                          |
e |------------------------------------------------------------------------------------------------|
A |------------------------------------------------------------------------------------------------|
G |-------------------------------4-----/----(14)~-------------------------------------------------|
E |------------------------------------------------------------------------------------------------|
A |-0----------------------------------------------------------------------------------------------|
F#|------------------------------------------------------------------------------------------------|



SONG STRUCTURE:

INTRO
VERSE I
PRE-CHORUS
CHORUS I
VERSE II
PRE-CHORUS
CHORUS II
INTRO
BRIDGE
OUTRO



That's it.  Please feel free to leave any comments, questions, or requests.
Cheers!
-Bennyshambles78-


Добавлено: 07.06.2016
Другие материалы по этой песне:
  • Аккорды и текст

Страница создана 29.02.2016
http://primanota.ru/unwound/laszlo-chords.htm
Привет, Гость.
Предлагаем пройти революционный курс по гитаре.
Подарок от PrimaNota.Ru, забирай!