PrimaNota.ru - самый крупный в мире бесплатный архив песенных текстов, аккордов, табулатур и нот


Unwound - Kid Is Gone - таба, видео

Регистрация Запомнить меня
Войти через:  Facebook Google Twitter Vk Yandex Mail.ru

Unwound - Kid Is Gone - таба, видео

Печатать
Просмотров: 81
UNWOUND - KID IS GONE

eb|-------4*---------------------------|
Bb|----4*------------------------------|
Gb|------------------------------------|
Db|----------------7*------------------| x4
Ab|----------7*-7*----7*------5*-------|
Eb|-4*-------------------5*-------5*---|

    eb|-------4*---------------------------|
    Bb|----4*------------------------------|
GTR Gb|------------------------------------|
 1  Db|----------------7*------------------| x7
    Ab|----------7*-7*----7*------5*-------|
    Eb|-4*-------------------5*-------5*---|

    eb|---------------------------5*-------|
    Bb|------------------------------------|
GTR Gb|------------------------------------|
 2  Db|------------------------------------| x7
    Ab|------------------------------------|
    Eb|------------------------------------|

eb|-------4*---------------------------|
Bb|----4*------------------------------|
Gb|------------------------------------|
Db|----------------7*----2-------------| 
Ab|----------7*-7*----7*-2-------------|
Eb|-4*-------------------0-------------|

eb|-------------------------------------|
Bb|-------------------------------------|
Gb|---------------16-16-16-16-14-16-14--|
Db|-------------------------------------| x4
Ab|-5-5-5-5-5-5-5-14-14-14-14-12-14-12--|
Eb|-3-3-3-3-3-3-3-----------------------|
    P M P M P MPM

eb|-------------------------------|
Bb|-----3p0-----------------------|
Gb|-------------------------------|
Db|-0h2-----0-0-0-5-5-5-5-5-5-5-5-| x3
Ab|---------------5-5-5-5-5-5-5-5-|
Eb|---------------3-3-3-3-3-3-3-3-|

eb|-------------------------------------|
Bb|-------------------------------------|
Gb|---------------16-16-16-16-14-16-14--|
Db|-------------------------------------| x4
Ab|-5-5-5-5-5-5-5-14-14-14-14-12-14-12--|
Eb|-3-3-3-3-3-3-3-----------------------|
    P M P M P MPM

eb|-------------------------------|
Bb|-----3p0-----------------------|
Gb|-------------------------------|
Db|-0h2-----2p0-0-5-5-5-5-5-5-5-5-| x4
Ab|---------------5-5-5-5-5-5-5-5-|
Eb|---------------3-3-3-3-3-3-3-3-|

eb|---------------------------------------------------|
Bb|---------------------------------------------------|
Gb|---------------------------------8--8--8--8--8--8--|
Db|---------------------------------8--8--8--8--8--8--|
Ab|-7-7-9-7-7-9-7-7-9-7-7-9-7-7-9-7-6--6--6--6--6--6--|
Eb|---------------------------------------------------|

eb|---------------------------------------------|
Bb|---------------------------------------------|
Gb|-9-9--9-9--9-9--9-9--9--9--8--8--8--8--8--8--|
Db|---------------------------8--8--8--8--8--8--|
Ab|-7-7--7-7--7-7--7-7--7--7--6--6--6--6--6--6--|
Eb|---------------------------------------------|

eb|-----------------------------------------------|
Bb|-----------------------------------------------|
Gb|-13-13-9-9-13-13-9-9-13-13-9-8--8--8--8--8--8--|
Db|-----------------------------8--8--8--8--8--8--| x2
Ab|-11-11-7-7-11-11-7-7-11-11-7-6--6--6--6--6--6--|
Eb|-----------------------------------------------|

eb|---------------------------------------------|
Bb|---------------------------------------------|
Gb|---15-15-15-15-15-15-15-15-15-15-15-15-15-15-|
Db|-2-------------------------------------------|
Ab|-2-14-14-14-14-14-14-14-14-14-14-14-14-14-14-|
Eb|-0-------------------------------------------|

eb|-------------------------------------|
Bb|-------------------------------------|
Gb|---------------16-16-16-16-14-16-14--|
Db|-------------------------------------| x4
Ab|-5-5-5-5-5-5-5-14-14-14-14-12-14-12--|
Eb|-3-3-3-3-3-3-3-----------------------|
    P M P M P MPM

eb|-------------------------------|
Bb|-----3p0-----------------------|
Gb|-------------------------------|
Db|-0h2-----2p0-0-5-5-5-5-5-5-5-5-| x4
Ab|---------------5-5-5-5-5-5-5-5-|
Eb|---------------3-3-3-3-3-3-3-3-|

eb|---|
Bb|---|
Gb|---|
Db|-5-|
Ab|-5-|
Eb|-3-|
Добавлено: 10.08.2013
Другие материалы по этой песне:
  • Аккорды и текст

Страница создана 10.08.2013
http://primanota.ru/unwound/kid-is-gone-chords.htm
Привет, Гость.
Предлагаем пройти революционный курс по гитаре.
Подарок от PrimaNota.Ru, забирай!