PrimaNota.ru - самый крупный в мире бесплатный архив песенных текстов, аккордов, табулатур и нот


Unwound - Entirely Different Matters - таба, видео

Регистрация Запомнить меня
Войти через:  Facebook Google Twitter Vk Yandex Mail.ru

Unwound - Entirely Different Matters - таба, видео

Печатать
Просмотров: 115
Entirely Different Matters

Intro / Chorus:

guitar:
---|---------------------------------|
---|---------------------------------|
---|-----2-----2---------------2-4---|
---|-4-4-2-4-4-2-4-------2---3-2-4-2-|
---|-4-4---4-4---4-2-3-3-2-3-3-----2-|
---|---------------2-3-3---3---------|
lyric:                      "doesn't really..."

bass:
---|---------------------------------|
---|-------------------------0-4-0---|
---|-4-4-4-2-4-4-4-2-------2-------2-|
-3-|-----------------3-3-3-----------|
play the first note (the 3) the first time but not on any of the
repeats

Verse
guitar:
|-----------------------------------------------------------------|
|-----0---------------0---------------0---------------0-----------|
|-----4---------------4---------------4---------------4-----------|
|---2-------0-------2-------0-------2-------0-------2-------0-----|
|-4---------------4---------------4---------------4---------------|
|-----------------------------------------------------------------|
"yes i'm certain..."

bass:
|-----------------------------------------------------------------|
|-----------------------------------------------------------------|
|-4-4-4-2-4-5-----4-4-4-2-4-5-----4-4-4-2-4-5-----4-4-4-2-4-5-----|
|-----------------------------------------------------------------|

guitar:
|---0-0-0-0-0-0-----0-0-0-0-0-0---|
|---3-3-3-3-3-3-----5-5-5-5-3-3---|
|---4-4-4-4-4-4-----6-6-6-6-4-4---|
|---------------------------------|
|---------------------------------|
|---------------------------------|
   "it makes me think..."

bass:
|---------------------------------|
|---------------------------------|
|---5-5-5-5-5-5-----7-7-7-7-5-5---|
|---------------------------------|

Grand Finale:
guitar:
|---------------------------------------------------------------------|
|---------------------------------------------------------------------|
|---------------------------------------------------------2---4-------|
|-----5-----5-----5-----5-----5-------4-----4---------3---2---4-------|
|-----5-----5-----5-----5-----5-------4-----4---------3---------------|
|-6-6---6-6---6-6---6-6---6-6---6-5-5---5-5---5-5-4---------------3---|

bass:
|---------------------------------------------------------------------|
|---------------------------------------------------------------------|
|-1-1-1-1-1-1-1-1-1-1-1-1-1-1-1-1-0-0-0-0-0-0-0-0---------------------|
|-------------------------------------------------4-4-4-4-4-4-4-4-3---|

http://unwound.livid.com/
Добавлено: 02.07.2012
Другие материалы по этой песне:
  • Аккорды и текст

Страница создана 02.07.2012
http://primanota.ru/unwound/entirely-different-matters-chords.htm
Привет, Гость.
Предлагаем пройти революционный курс по гитаре.
Подарок от PrimaNota.Ru, забирай!