PrimaNota.ru - самый крупный в мире бесплатный архив песенных текстов, аккордов, табулатур и нот


Untitled - Uniracers - Race 1 - таба, видео

Регистрация Запомнить меня
Войти через:  Facebook Google Twitter Vk Yandex Mail.ru

Untitled - Uniracers - Race 1 - таба, видео

Печатать
Просмотров: 48
-----------------------------------------------------------------------------
                             Race 1 - Uniracers
-----------------------------------------------------------------------------
Tabbed by: jarredpickles87
Email:  jarredpickles87@gmail.com

Great music from a great game. Should be near 100%, but I'm a little iffy 
on the solo part, especially where it climbs down the scale. Any questions
or comments just let me know and I'll fix it the best I can.


Tuning: Standard

e|-----------------------------------------------|
B|-----------------------------------------------|
G|----7----5----7-------7----------7----5----3---|
D|----7----5----7-------7----------7----5----3---|
A|----5----3----5-------5----------5----3----1---|
E|-----------------------------------------------|

e|-----------------------------------------------|
B|-----------------------------------------------|
G|----2---3---4---5-6-7----3---4---5---6-7-8-----|
D|----2---3---4---5-6-7----3---4---5---6-7-8-----|
A|----0---1---2---3-4-5----1---2---3---4-5-6-----|
E|-----------------------------------------------|

e|-----------------------------------------------|
B|-----------------------------------------------|
G|----4---5---6---7-8-9--------------------------|
D|----4---5---6---7-8-9------------7~ -----------|
A|----2---3---4---5-6-7------------7~ -----------|
E|--------------------------3b1----5~ -----------|

For the bend here, be on the first fret already bent into 3
and unbend down into 1

e|-----------------------------------------------|
B|-----------------------------------------------|
G|----7----7----------------9----9---------------|
D|----7----7-----7----7-----9----9-----7~ -------|
A|----5----5-----7----7-----7----7-----7~ -------|
E|---------------5----5----------------5~ -------|



Solo:

e|-----------------------------------------------|
B|----20b21--20b21--20b21--20b21--20p18----20b21-|
G|--------------------------------------20-------|
D|-----------------------------------------------|
A|-----------------------------------------------|
E|-----------------------------------------------|

e|-----------------------------------------------|
B|----20b21--20b21--20b21--20b21--20p18----20b21-|
G|--------------------------------------20-------|
D|-----------------------------------------------|
A|-----------------------------------------------|
E|-----------------------------------------------|

e|--------------20-18----18----------------------------------------------|
B|-------15-----------20----20-18-20-18-16-18-16-15-16-15----------------|
G|----17---------------------------------------------------16-14-12/14---|
D|-----------------------------------------------------------------------|
A|-----------------------------------------------------------------------|
E|-----------------------------------------------------------------------|

e|-----15b16b15-----15b16-15b16-15b16-15b16-15b16-15b16-16b17~ ----------|
B|--------------17-------------------------------------------------------|
G|-----------------------------------------------------------------------|
D|-----------------------------------------------------------------------|
A|-----------------------------------------------------------------------|
E|-----------------------------------------------------------------------|





e|-----------------------------------------------|      --------|
B|-----------------------------------------------|              |
G|-----------5\3/5----7--5--7--7-----------------|              |
D|----7/12---5\3/5----7--5--7--7----3-4-5--------|              |
A|----7/12---3\1/3----5--3--5--5----3-4-5--------|              |
E|----5/10--------------------------1-2-3--------|              |
                                                                |
e|-----------------------------------------------|              |
B|-----------------------------------------------|              |
G|-----------5\3/5----7--5--7--7-----------------|              |
D|----7/12---5\3/5----7--5--7--7----3-4-6--------|              |
A|----7/12---3\1/3----5--3--5--5----3-4-6--------|              |
E|----5/10--------------------------1-2-4--------|              
                                                                x2
e|-----------------------------------------------|              
B|-----------------------------------------------|              |
G|----4/9----7\5/7----9--7--9--9-----------------|              |
D|----4/9----7\5/7----9--7--9--9----4-5-6--------|              |
A|----2/7----5\3/5----7--5--7--7----4-5-6--------|              |
E|----------------------------------2-3-4--------|              |
                                                                |
e|-----------------------------------------------|              |
B|-----------------------------------------------|              |
G|----4/9----7\5/7----9--7--9--9-----------------|              |
D|----4/9----7\5/7----9--7--9--9----4-5-7--------|              |
A|----2/7----5\3/5----7--5--7--7----4-5-7--------|              |
E|----------------------------------2-3-5--------|      --------|

e|---------------------------|
B|---------------------------|
G|----7----5----3----5-------|
D|----7----5----3----5-------|  x2
A|----5----3----1----3-------|
E|---------------------------|

e|-----------------------------------------------|
B|-----------------------------------------------|
G|----9----7----5----7----3----5----7------------|
D|----9----7----5----7----3----5----7------------|
A|----7----5----3----5----1----3----5------------|
E|-----------------------------------------------|


| ~  let ring
| /  slide up
| \  slide down
| b  bend
| h  hammer-on
| p  pull-off
| +  harmonic
| x  Mute note
=============================================================================
Добавлено: 11.08.2013
Другие материалы по этой песне:
  • Аккорды и текст

Страница создана 11.08.2013
http://primanota.ru/untitled/uniracers-race-1-chords.htm
Привет, Гость.
Предлагаем пройти революционный курс по гитаре.
Подарок от PrimaNota.Ru, забирай!