PrimaNota.ru - самый крупный в мире бесплатный архив песенных текстов, аккордов, табулатур и нот


Untitled - Stronger - таба, видео

Регистрация Запомнить меня
Войти через:  Facebook Google Twitter Vk Yandex Mail.ru

Untitled - Stronger - таба, видео

Печатать
Просмотров: 93
Уроки эстрадного вокала в Санкт-Петербурге
Between Verse 1 and Verse 2
E|--------------------------------------------------|
B|-17---17-17---17-18---18-17---17-17---17----------|
G|----17------17------17------17------17---19-17h19-|
D|--------------------------------------------------|
A|--------------------------------------------------|
E|--------------------------------------------------|


E|-----------------------------------------------------|
B|-17---17-17---17-18---18-17---17-17---17-------------|
G|----17------17------17------17------17---19-17h19-17-|
D|-----------------------------------------------------|
A|-----------------------------------------------------|
E|-----------------------------------------------------|


[Verse 2]
E|----------|
B|-13s12-12-|
G|----------|
D|----------|
A|----------|
E|----------| repeat every measure


Between Verse 2 and Chorus
E|----------------------------------------------------------------------|
B|----------------------------------------------------------------------|
G|-17---17-17----17-17---17-17---17-17---17-17----17-17---17-17---17-17-|
D|----17------17-------17------17------17------17-------17------17------|
A|----------------------------------------------------------------------|
E|----------------------------------------------------------------------|


Between Chorus and Verse 3
E|--------------------------------------------------|
B|-17---17-17---17-18---18-17---17-17---17----------|
G|----17------17------17------17------17---19-17h19-|
D|--------------------------------------------------|
A|--------------------------------------------------|
E|--------------------------------------------------|


E|-----------------------------------------------------|
B|-17---17-17---17-18---18-17---17-17---17-------------|
G|----17------17------17------17------17---19-17h19-17-|
D|-----------------------------------------------------|
A|-----------------------------------------------------|
E|-----------------------------------------------------|


[Verse 3]
E|----------|
B|-13s12-12-|
G|----------|
D|----------|
A|----------|
E|----------| repeat every measure


Between Verse 3 and Chorus
E|----------------------------------------------------------------------|
B|----------------------------------------------------------------------|
G|-17---17-17----17-17---17-17---17-17---17-17----17-17---17-17---17-17-|
D|----17------17-------17------17------17------17-------17------17------|
A|----------------------------------------------------------------------|
E|----------------------------------------------------------------------|


[Chorus]
E|-----------------------------------------------------------------|
B|-----------------------------------------------------------------|
G|-17---17-17---17-17---17-17---17-16---16-16---16-16---16-16---16-|
D|----17------17------17------17------17------17------17------17---|
A|-----------------------------------------------------------------|
E|-----------------------------------------------------------------| x3


E|---------------------------------|
B|---------------------------------|
G|-17---17-17---17-17---17-17---17-|
D|----17------17------17------17---|
A|---------------------------------|
E|---------------------------------|


[Solo]
E|-0-0-0-0-1-1s3-3-3-3-3-3-3-8-8-8-8-10-10-7-7-7-7-7-7-|
B|-----------------------------------------------------|
G|-----------------------------------------------------|
D|-----------------------------------------------------|
A|-----------------------------------------------------|
E|-----------------------------------------------------|


E|-8-8-8-8s10-10-10s12-12-12-12-12-12-12-15---15--15-----15-----15--15-------|
B|------------------------------------------13--13--13-13--13-13--13---13-12-|
G|---------------------------------------------------------------------------|
D|---------------------------------------------------------------------------|
A|---------------------------------------------------------------------------|
E|---------------------------------------------------------------------------|


[Bridge]
Play Chords
Добавлено: 23.08.2013
Другие материалы по этой песне:
  • Аккорды и текст

Страница создана 23.08.2013
http://primanota.ru/untitled/stronger-chords.htm
Привет, Гость.
Предлагаем пройти революционный курс по гитаре.
Подарок от PrimaNota.Ru, забирай!