PrimaNota.ru - самый крупный в мире бесплатный архив песенных текстов, аккордов, табулатур и нот


Untitled - Odd Sock - таба, видео

Регистрация Запомнить меня
Войти через:  Facebook Google Twitter Vk Yandex Mail.ru

Untitled - Odd Sock - таба, видео

Печатать
Просмотров: 69
-------------------------------------------------------------------------------
			     ODD SOCK - Untitled
-------------------------------------------------------------------------------
Tabbed by:
Email:

Tuning:Standard

 INTRO

e|-----2------------------------|-----2------------------------|
B|-----3-------2-------------2--|-----3-------2-------------2--|
G|---2---------2-------1-----2--|---2---------2------1------2--|
D|--0---------2-------1-----2---|--0---------2-------1------2--| X2
A|----------0--------2----0-----|----------0--------2-------0--|
E|-----------------0------------|-----------------0------------|
 
 VERSE 1

e|-----2------------------------|-----2------------------------|
B|-----3-------2-------------2--|-----3-------2-------------2--|
G|---2---------2-------1-----2--|---2---------2------1------2--|
D|--0---------2-------1-----2---|--0---------2-------1------2--|
A|----------0--------2----0-----|----------0--------2-------0--|
E|-----------------0------------|-----------------0------------|

 BRIDGE

e|-2-2-0-0-0-0-0-0-x-0-0--|
B|-3-3-0-2-2-0-0-0-x-2-2--|
G|-2-2-0-2-2-0-1-1-x-2-2--|X2
D|-0-0-0-2-2-0-2-2-x-2-2--|
A|-0-0-0-0-0-0-2-2-x-0-0--|
E|-0-0-0-0-0-0-0-0-x-0-0--|

Use Bridge Until Chorus

 C             D          A
Heres To The Sock That You Never Knew
Hes More Of A Man Than Me  Or You 

Solo

e|---------------------------------12--------------------------------------|
B|---15-15-13-14-14-10-12-12-10/14------15-15-17-14-14-15-12b-12b-10\------|
G|-------------------------------------------------------------------------|
D|-------------------------------------------------------------------------|
A|-------------------------------------------------------------------------|
E|-------------------------------------------------------------------------|



| /  slide up
| \  slide down
| h  hammer-on
| p  pull-off
| ~  vibrato
| +  harmonic
| x  Mute note
===============================================================================
Добавлено: 17.06.2013
Другие материалы по этой песне:
  • Аккорды и текст

Страница создана 17.06.2013
http://primanota.ru/untitled/odd-sock-chords.htm
Привет, Гость.
Предлагаем пройти революционный курс по гитаре.
Подарок от PrimaNota.Ru, забирай!