PrimaNota.ru - самый крупный в мире бесплатный архив песенных текстов, аккордов, табулатур и нот


Untitled - My Redeemer - бас-таба, видео

Регистрация Запомнить меня
Войти через:  Facebook Google Twitter Vk Yandex Mail.ru

Untitled - My Redeemer - бас-таба, видео

Печатать
Просмотров: 81
Уроки эстрадного вокала в Санкт-Петербурге
intro 1 guitar 4 bars

intro 2 full band 
 E7               A7
 1+2+3+4+5+6+7+8+ 1+2+3+4+5+6+7+8+   
G|---------------||---------------| 
D|---------------||---------------| 
A|---------------||--4--4-444-5-7-| 
E|00--7-07-04-5-7||55--5----------|x2

verse 1 x2
 E7               A7                 E7               A7
 1+2+3+4+5+6+7+8+ 1+2+3+4+5+6+7+8+   1+2+3+4+5+6+7+8+ 1+2+3+4+5+6+7+8+
G|---------------||---------------|  |---------------||---------------|
D|---------------||---------------|  |---------------||----7--5--4-02-|
A|---------------||--4--4-444-5--7|  |---5-555-44----||00~~--0~~0~~~~-|
E|00--7-07-04-5-7||55--5----------|x2|00----------7/5||---------------|x2

pre-chorus
 B                 B                A7        Bmaj
 1+2+3+4+5+6+7+8+  1+2+3+4+5+6+7+8+ 1+2+3+4+5+6+7+8+  
G|----------------||---------------||----------------|
D|----------------||---------------||----------------|
A|2---2---2---2---||2---2---2---4--|| 0~~~~~~~2-2-2-2|
E|----------------||---------------||----------------|
chorusx2
 E7               A7               C#7              Bm
 1+2+3+4+5+6+7+8+ 1+2+3+4+5+6+7+8+ 1+2+3+4+5+6+7+8+ 1+2+3+4+5+6+7+8+
G|---------------||---------------||---------------||---------------|
D|---------------||---------------||---------------||---------------|
A|---------------||------444-h5-7-||4~~~~--4---4---||---------------|
E|0-0---0-7-0-7-0||5-x5-----------||-----4---4---4-||7-7-5-5-4-4-5-7|

mini bridge
 E7               A7
 1+2+3+4+5+6+7+8+ 1+2+3+4+5+6+7+8+   
G|---------------||---------------| 
D|---------------||---------------| 
A|---------------||--4--4-444-5--7| 
E|00--7-07-04-5-7||55--5----------|x2

 verse 2 x2
 E7               A7                 E7               A7
 1+2+3+4+5+6+7+8+ 1+2+3+4+5+6+7+8+   1+2+3+4+5+6+7+8+ 1+2+3+4+5+6+7+8+
G|---------------||---------------|  |---------------||---------------|
D|---------------||---------------|  |---------------||----7--5--4-02-|
A|---------------||--4--4-444-5--7|  |----5--5-4~----||00~~~~0~~0~~---|
E|00--7-07-04-5-7||55--5----------|x2|00----0-0---757||---------------|x2
                                              M M
pre-chorus
 Bsus4/B            B                A7       Bmaj
 1+2+3+4+5+6+7+8+  1+2+3+4+5+6+7+8+ 1+2+3+4+5+6+7+8+  
G|----------------||---------------||----------------|
D|----------------||---------------||----------------|
A|2---2---2---2---||2---2---2---4--||0!~~~~~~~2-2-2-2|
E|----------------||---------------||----------------|

chorus 2  X3
 E7/E             A7/A             C#7/C#           Bm/B
 1+2+3+4+5+6+7+8+ 1+2+3+4+5+6+7+8+ 1+2+3+4+5+6+7+8+ 1+2+3+4+5+6+7+8+
G|---------------||---------------||---------------||---------------|
D|---------------||---------------||---------------||---------------|
A|---------------||------444-h5-7-||4~~~~--4---4---||---------------|
E|0-0---0-7-0-7-0||5-x-5----------||-----4---4---4-||7-7-5-5-4-4-5-7|

 E7/E             A7/A             C#7/C#           Bm/B
 1+2+3+4+5+6+7+8+ 1+2+3+4+5+6+7+8+ 1+2+3+4+5+6+7+8+ 1+2+3+4+5+6+7+8+
G|---------------||---------------||---------------||----------------|
D|---------------||---------------||---------------||----------------|
A|---------------||------444-h5-7-||4~~~~--4---4---||----6-6-7-//99\\|
E|0~~~--0-7-0-7-0||5-x5-----------||-----4---4---4-||7-7-------------|

 Dmaj/D           Dmaj/D           A7/A             A7/A
 1+2+3+4+5+6+7+8+ 1+2+3+4+5+6+7+8+ 1+2+3+4+5+6+7+8+ 1+2+3+4+5+6+7+8+
G|---------------||---------------||---------------||---------------|
D|---------------||---------------||---------------||---------------|
A|5----5-----5--5||-5--5----5--5-7||-4---4----4--4-||--4--4-----4-4/|
E|---------------||---------------||---------------||---------------|

 Bsus4/B          A7/A             Bsus4/B          Bm/B
 1+2+3+4+5+6+7+8+ 1+2+3+4+5+6+7+8+ 1+2+3+4+5+6+7+8+ 1+2+3+4+5+6+7+8+
G|---------------||---------------||---------------||----------------|
D|---------------||---------------||---------------||--/9/11-9~~~~~~~|
A|2----2----2--2-||0--0----0--0--0||2----2-----4-2/||//--------------|
E|---------------||---------------||---------------||----------------|
REPEAT CHORUS 
  
CHORUS 3
VOCAL AND DRUM BREAK MY REDEEMER LIVES...X8......... THEN ENTER BASS
 E7/E             A7/A             C#7/C#           Bm/B
 1+2+3+4+5+6+7+8+ 1+2+3+4+5+6+7+8+ 1+2+3+4+5+6+7+8+ 1+2+3+4+5+6+7+8+
G|---------------||---------------||---------------||---------------|
D|---------------||---------------||---------------||---------------|
A|-7--5--4--2--0-||--4--4-444-h5-7||4~~~~--4---4---||----6-6-7-7-9-9|
E|0--0--0--0--0-5||55--5----------||-----4---4---4-||7-7------------|
light E thumbing

 E7/E             A7/A             C#7/C#           Bm/B
 1+2+3+4+5+6+7+8+ 1+2+3+4+5+6+7+8+ 1+2+3+4+5+6+7+8+ 1+2+3+4+5+6+7+8+
G|---------------||---------------||---------------||---------------|
D|---------------||---------------||---------------||---------------|
A|---------------||------444-h5-7-||4~~~~--4---4---||----6-6-7-7-9-9|
E|0~~~--0-7-0-7-0||5-x5-----------||-----4---4---4-||7-7------------|X2
 
 E7/E             A7/A             C#7/C#           Bm/B
 1+2+3+4+5+6+7+8+ 1+2+3+4+5+6+7+8+ 1+2+3+4+5+6+7+8+ 1+2+3+4+5+6+7+8+
G|---------------||---------------||---------------||---------------|
D|2-2-0-0--------||---------------||---------------||---------------|
A|--------4-4-2-2||0-0------------||4~~~~--4---4---||----6-6-7-7-9-9|
E|---------------||----4-4-2-2-0-0||-----4---4---4-||7-7------------|TILL END

Добавлено: 04.09.2013
Другие материалы по этой песне:
  • Аккорды и текст

Страница создана 04.09.2013
http://primanota.ru/untitled/my-redeemer-chords.htm
Привет, Гость.
Предлагаем пройти революционный курс по гитаре.
Подарок от PrimaNota.Ru, забирай!